Oops, an error
Loading. Please wait.

Elementales Leches bass

version 2
version 2

Whole song

Interactive

107 views 1 this week
no commentswrite comment
1 2 3 4 5
3 more votes to show rating
add to favorites
×
Save as Personal and add changes to this tab that will be seen only by you. Learn more ›
×
You can save this tab as Personal to edit and correct it or add notes. All changes will be seen only by you. Learn more »
launch autoscroll
font size
0
reset
guitar tuner
edit
Autoscroll
slow
fast
+/-
esc
set tempo
stop
Otro temazo del primer disco de Invisible. No es tan difícil,
fíjense que repite el bajo las partes del verso,
el resto no es complicado. Quedo larga
porque le puse la letra para que se guíen bien.

G|---------------
D|------10---10--
A|-8-888---8--(0)
E|---------------

    ??Curvas del aire?          ?puertas del blanco?
G|-------------------------------------------
D|------3-4-5--5-5--55-5-5/7-----------------
A|5--5-5--------------------0--0-0-3-4-5--5-5
E|-------------------------------------------
                   ?horas del reloj?
G|--------------------------------------7--7-----|
D|-3-4-5--5----------------5----------7----------|
A|----------3/5---5--3-3-3---3-0-5--5--------5-0-|
E|-------------3---------------------------------|

G|---------------
D|------10---10--
A|-8-888---8--(0)
E|---------------

(Acá repite el lo que hace en el verso)
    ?hijos amigos?             ?aquellas hojas?
G|-------------------------------------------
D|------3-4-5--5-5--55-5-5/7-----------------
A|5--5-5--------------------0--0-0-3-4-5--5-5
E|-------------------------------------------
             ?elementales leches?
G|--------------------------------------7--7-----|
D|-3-4-5--5----------------5----------7----------|
A|----------3/5---5--3-3-3---3-0-5--5--------5-0-|
E|-------------3---------------------------------|

                    ?lo que esta y no se usa? (2 veces)
G|---------------|---------------------------------------|
D|------10--10---|-------------3------2-2----------3-----|
A|-88-88---8-(0)-|-0-0-0---5-------3------0--------------|
E|---------------|---------------------------2--3--------|

(Otra vez repite el lo que hace en el verso)
      ?Siempre despacio?         ?las humaredas?
G|--------------------------------------------
D|-------3-4-5--5-5--55-5-5/7-----------------
A|-5--5-5--------------------0--0-0-3-4-5--5-5
E|--------------------------------------------
             ?la luna?(calma)?
G|--------------------------------------7--7-----|
D|-3-4-5--5----------------5----------7----------|
A|----------3/5---5--3-3-3---3-0-5--5--------5-0-|
E|-------------3---------------------------------|
    ?hijos amigos?              ?suyo es el fruto?
G|-------------------------------------------
D|------3-4-5--5-5--55-5-5/7-----------------
A|5--5-5--------------------0--0-0-3-4-5--5-5
E|-------------------------------------------
                ?en el árbol (miedo)?
G|--------------------------------------7--7-----|
D|-3-4-5--5----------------5----------7----------|
A|----------3/5---5--3-3-3---3-0-5--5--------5-0-|
E|-------------3---------------------------------|

                                (2 veces)
                    ?lo que esta y no se usa nos fulminara?
G|---------------|---------------------------------------|
D|------10--10---|-------------3------2-2----------3-----|
A|-88-88---8-(0)-|-0-0-0---5-------3------0--------------|
E|---------------|---------------------------2--3-(1)----|

      ?La totalidad de tu cuerpo eterno no es maligna?
G|----------------------------------------------------------------------|
D|---------16--------------16---------14--------------------------------|
A|-14---14----14---13---13----13---12----12-13-14-----------------------|
E|--------------------------------------------------0-------------------|

      ?La semilla crece donde?     ?y ven?        vientos?
G|----------------------------------------------------------------------|
D|---------------------7------------------------------------------------|
A|-6------4----------7---------------------------7----------------------|
E|---------------5-8---------4--------0-5-------------------------------|
 ?Son sangres?    ?y cuerpos en colores?
G|----------------------------------------------------------------------|
D|----------------------------------3-----3-----3----3---3---3----------|
A|---7----------------7-------------------------------------------------|
E|-------------------------------------1-----1-----1---1---1---1--1--1--|

 (Otra vez repite el lo que hace en el verso)
   ?hijos amigos?              ?suyo es el fruto?
G|-------------------------------------------
D|------3-4-5--5-5--55-5-5/7-----------------
A|5--5-5--------------------0--0-0-3-4-5--5-5
E|-------------------------------------------
                ?en el árbol (miedo)?
G|--------------------------------------7--7-----|
D|-3-4-5--5----------------5----------7----------|
A|----------3/5---5--3-3-3---3-0-5--5--------5-0-|
E|-------------3---------------------------------|

G|---------------
D|------10---10--
A|-8-888---8--(0)
E|---------------

(Otra vez repite el lo que hace en el verso)
    ?hijos amigos?             ?aquellas hojas?
G|-------------------------------------------
D|------3-4-5--5-5--55-5-5/7-----------------
A|5--5-5--------------------0--0-0-3-4-5--5-5
E|-------------------------------------------
             ?elementales leches?
G|--------------------------------------7--7-----|
D|-3-4-5--5----------------5----------7----------|
A|----------3/5---5--3-3-3---3-0-5--5--------5-0-|
E|-------------3---------------------------------|

                                (2 veces)
                    ?lo que esta y no se usa nos fulminara??
G|---------------|---------------------------------------|
D|------10--10---|-------------3------2-2----------3-----|
A|-88-88---8-(0)-|-0-0-0---5-------3------0--------------|
E|---------------|---------------------------2--3-(1)----|


Elementales leches (Invisible)

Curvas del aire son,
Puertas del blanco barco lento de las horas? (desvelo)
Hijos amigos,
Muerden aquellas hojas de sus pies y elementales? (Leches)
Lo que esta y no se usa nos fulminara?
Lo que esta y no se usa nos fulminara?

Siempre despacio,
Sueñan las humaredas que descansan en la luna? (calma)
Hijos amigos, vengan,
Suyo es el fruto que olvidaron en el árbol (miedo)
Lo que esta y no se usa nos fulminara?
Lo que esta y no se usa nos fulminara?

La totalidad de tu cuerpo eterno no es maligna?
La semilla crece donde el sol las deposita?
Y ven los vientos en retorno?
Son sangres marginales?
Y cuerpos en colores?


Mientras sus temas se sigan tocando y escuchando el Carpo y el
Flaco jamás morirán, vivirán eternamente en la memoria de todos...
e-mail: zarathustra4321@

            
            
Suggest correction
Creating personal tab
Creating personal tab
You can edit any tab online and save it as your Personal.

You can edit, replace or remove any tab part or add personal notes – all changes will be seen only by you.

Personal tabs can be accessed anytime from any device, even offline.
Learn more »
Give kudos to tab author, rate the tab!
1 2 3 4 5
comments
print report bad tab
guest
Wanna post a correction for this tab? Suggest correction