Oops, an error
Loading. Please wait.

Irregular tab

191 views 3 this week
no commentswrite comment
1 2 3 4 5
3 more votes to show rating
add to favorites
×
Save as Personal and add changes to this tab that will be seen only by you. Learn more ›
×
You can save this tab as Personal to edit and correct it or add notes. All changes will be seen only by you. Learn more »
launch autoscroll
font size
0
reset
how to read this tab
guitar tuner
edit
Autoscroll
slow
fast
+/-
esc
set tempo
stop
Esta es la correccion a mi tablatura anterior.
Solo estaba el principio y ahora va la cancion entera.
Espero que les sirva y que disfruten tocando
de esta increíble banda nacional
que personalmente me cambio la vida.

Cualquier duda pregunten a peavey_raptorplus@

        A7               C7

e---9--7--------9---7----12~---/
b----8----7-7-7--8-------11~---/
g-----9----9-9----9------12~---/
d------------------------10~---/
a------------------------------/
E------------------------------/

        A7              Cmaj7

e---9--7--------9---7----12~---/
b----8----7-7-7--8-------12~---/
g-----9----9-9----9------12~---/
d------------------------10~---/
a------------------------------/
E------------------------------/


        G/D

e------7------7-5h7p5-5--7-5h7p5--5-----------/
b-----8---8----------8-----------8-7-8-5-----/
g----7-----------------------------------7~--/
d---0---0------------------------------------/
a--------------------------------------------/
E--------------------------------------------/

        G/D

e-----------7-5h7p5-5---------------/
b------------------8---7-8-5//----/
g-----------------------------------/
d-----------------------------------/
a-----------------------------------/
E-----------------------------------/


                             (Gm6)
e---7-777-----7-777----7-----*-----------/
b---7-777-----7-777----7------(3)--------/
g---7-777-77--7-777-77-7--777--3~--------/
d---9-999-99--8-888-88-7--777--2~--------/
a------------------------------x---------/
E------------------------------3---------/

                             (G#m6)
e---7-777-----7-777----7---9-*-----------/
b---7-777-----7-777----7------(4)--------/
g---7-777-77--7-777-77-7--777--4~--------/
d---9-999-99--8-888-88-7--777--3~--------/
a------------------------------x---------/
E------------------------------4---------/

     ¡ ¡!             ¡!

e-----------------------------------------/
b--5-5-555.s.7--7777--77-----9999--99-----/
g--5-5-555.s.7--7777--77---8-8888--88-----/
d--4-4-444.s.6--6666--66---9-9999--99-----/
a--x-x-xxx---x--xxxx--xx---7-7777--77-----/
E--5-5-555.s.7--7777--77--0---------------/


e--------------------------------------------/
b--5-5555-555---7--7777--77-----9999--99-----/
g--5-5555-555---7--7777--77---8-8888--88-----/
d--4-4444-444---6--6666--66---9-9999--99-----/
a--x-xxxx-xxx---x--xxxx--xx---7-7777--77-----/
E--5-5555-555.s.7--7777--77--0---------------/

                      ¡
e----------------------------/
b--5-5555-555---7--7--9~~~----/
g--5-5555-555---7--7--8~~~------/
d--4-4444-444---6--6--9~~~----/
a--x-xxxx-xxx---x--x--7~~~----/
E--5-5555-555.s.7------------/


        A7               C7

e---9--7--------9---7----12~---/
b----8----7-7-7--8-------11~---/
g-----9----9-9----9------12~---/
d------------------------10~---/
a------------------------------/
E------------------------------/

        A7              Cmaj7

e---9--7--------9---7----12~---/
b----8----7-7-7--8-------12~---/
g-----9----9-9----9------12~---/
d------------------------10~---/
a------------------------------/
E------------------------------/

        G/D

e------7------7-5h7p5-5--7-5h7p5--5----------/
b-----8---8----------8-----------8-7-8-5-----/
g----7-----------------------------------7~--/
d---0---0------------------------------------/
a--------------------------------------------/
E--------------------------------------------/

        G/D

e-----------7-5h7p5-5---------------/
b------------------8---7-8-5//----/
g-----------------------------------/
d-----------------------------------/
a-----------------------------------/
E-----------------------------------/

                             (Gm6)
e---7-777-----7-777----7-----*-----------/
b---7-777-----7-777----7------(3)--------/
g---7-777-77--7-777-77-7--777--3~--------/
d---9-999-99--8-888-88-7--777--2~--------/
a------------------------------x---------/
E------------------------------3---------/

                             (G#m6)
e---7-777-----7-777----7-----*-----------/
b---7-777-----7-777----7------(4)--------/
g---7-777-77--7-777-77-7--777--4~--------/
d---9-999-99--8-888-88-7--777--3~--------/
a------------------------------x---------/
E------------------------------4---------/


     ¡ ¡!             ¡!

e-----------------------------------------/
b--5-5-555.s.7--7777--77-----9999--99-----/
g--5-5-555.s.7--7777--77---8-8888--88-----/
d--4-4-444.s.6--6666--66---9-9999--99-----/
a--x-x-xxx---x--xxxx--xx---7-7777--77-----/
E--5-5-555.s.7--7777--77--0---------------/


e--------------------------------------------/
b--5-5555-555---7--7777--77-----9999--99-----/
g--5-5555-555---7--7777--77---8-8888--88-----/
d--4-4444-444---6--6666--66---9-9999--99-----/
a--x-xxxx-xxx---x--xxxx--xx---7-7777--77-----/
E--5-5555-555.s.7--7777--77--0---------------/

                      ¡
e----------------------------/
b--5-5555-555---7--7--9~~~----/
g--5-5555-555---7--7--8~~~------/
d--4-4444-444---6--6--9~~~----/
a--x-xxxx-xxx---x--x--7~~~----/
E--5-5555-555.s.7------------/


||Emaj7||    ( 0 7 9 8 9 0 )


fpc

(2:08)
e------0--|--------|---------------|------------/
b-----9---|--9-----|----------3-2~~-|------------/
g----8----|---8----|---------------|------------/
d---9-----|-----9--|--(9)~~~--------|------------/
a--7------|--------|---------------|--(6/7)-2---/
E-0-------|--------|---------------|-----------0/


Solo: (2:24)

e----------------------9-----9-12-9--9--------------------/
b-------------------(9)---12-------12-12p9-9s12|12|12s14~--/
g-11*13*11-9s.11-11**--------------------11---------------/
d---------------------------------------------------------/
a---------------------------------------------------------/
E---------------------------------------------------------/

e-------9-------------------------------/
b-----12-12p9--9------------------------/
g-11*.-------11-11p9--11-9**-----11*9---/
d-------------------11------------------/
a---------------------------------------/
E---------------------------------------/

e----9-------9----9---------------------/
b-----9---12*--12*----------------------/
g-11*--11-----------11**----------------/
d---------------------------------------/
a---------------------------------------/
E---------------------------------------/


(2:40)

||11* estira hasta (13)||

e---------------------------------------/
b---------------------------------------/
g---------------------------------------/
d--99-66-9--99-66-9----6-9-11-11*-------/
a--------------------9------------------/
E---------------------------------------/

e---------------------------------------/
b--------------------------9-11-11*-----/
g--99-66-9--99-66-9----6s9--------------/
d--------------------9------------------/
a---------------------------------------/
E---------------------------------------/

e----------------------------------|-------------------/
b----------------------------------|-9-9-9---9--9------/
g--8-9--|--8-9-8h9--8-9------------|-9-9h11-h13-11p9---/
d-----9-|x2-----9----9----9-9-9s11-|----------------11-/
a----------------------------------|-------------------/
E----------------------------------|-------------------/


e------------------------------------/
b------------------------------------/--9--9-9---/
g--8-9--8-9-8h9--8-9--9-9s11-11*(13)-/--9--9h11--/
d-----9----9----9--------------------/
a------------------------------------/
E------------------------------------/

e-------------------------------------------------/
b-------------------------------------------------/
g-------------------------------------------------/
d--99-66-9--99-66-9----6-9-11-11*(13)*11-9-6-6----/
a--------------------9----------------------------/
E-------------------------------------------------/

e---------------------------------|----9----|---9|--------/
b---------------------------------|-----9---|----|(x3)----/
g---------------------------------|-11*--11-|11*-|---9h---/
d--99-66-9--99-11*11-9-6h9-9-9s11-|---------|----------11-/
a---------------------9-----------|---------|-------------/
E---------------------------------|---------|-------------/

e-----------------------------------------------/
b-----------------------------------------------/
g--8-9--8-9--11p8--11p8--11p8-11p8-11p8---------/
d-----9----------9-----9----9-----9----9-9-9s11-/
a-----------------------------------------------/
E-----------------------------------------------/


e----------------------------/
b-----------(12)-------------/
g--9-11s13-13----11-9--------/
d---------------------11-----/
a----------------------------/
E----------------------------/

e-----------------------------------------------/
b-----------------------------------------------/
g--8-9--8-9--11p8--11p8--11p8-11p8-11p8---------/
d-----9----------9-----9----9-----9----9-9-9s11-/
a-----------------------------------------------/
E-----------------------------------------------/

e------------9-11-12----11--------|--12**(14)--/
b----9-10-12---------12----99..---|------------/
g-11------------------------------|------------/
d---------------------------------|------------/
a---------------------------------|------------/
E---------------------------------|------------/

e--12-12p9-12------------------------/
b-------------12-9..----------9//----/ |wah-wah|
g-------------------11-9------9//----/
d-----------------------9s11---------/
a------------------------------------/
E------------------------------------/


(3:54)

    !                  ¡

e------------------------------------/
b----8-----------------8-------------/
g----7-----------------7-------------/
d----6-----------------5-------------/
a----7-----------------6-------------/
E---(0)------------------------------/

        Mientras la ciudad calla..


e------(3)------------/
b-------3-------------/
g-------4-------------/
d-------5-------------/
a-------5-------------/
E---------------------/

O prosigue


e--------------------------------/
b--------------------------------/
g--------------------------------/
d------------2-------------------/
a------2-3-5---3-2-0-------------/
E--3-5---------------1----1//----/


    !                  ¡

e------------------------------------/
b----8-----------------8-------------/
g----7-----------------7-------------/
d----6-----------------5-------------/
a----7-----------------6-------------/
E---(0)------------------------------/

        Aun en el corazon

e------(3)------------/
b-------3-------------/
g-------4-------------/
d-------5-------------/
a-------5-------------/
E---------------------/

  De la urbe


e--------------------------------/
b--------------------------------/
g--------------------------------/
d------------2-------------------/
a------2-3-5---3-2-0-------------/
E--3-5---------------1----1//----/


    !                  ¡

e------------------------------------/
b----8-----------------8-------------/
g----7-----------------7-------------/
d----6-----------------5-------------/
a----7-----------------6-------------/
E---(0)------------------------------/

        Se escucha el clamor de un grito


e------(3)------------/
b-------3-------------/
g-------4-------------/
d-------5-------------/
a-------5-------------/
E---------------------/

 De inocencia


e--------------------------------/
b--------------------------------/
g--------------------------------/
d------------2-------------------/
a------2-3-5---3-2-0-------------/
E--3-5---------------1----1//----/


    !                  ¡

e-------------------------------------------/
b----8------------------------8-------------/
g----7------------------------7-------------/
d----6------------------------5-------------/
a----7------------------------6-------------/
E---(0)-------------------------------------/

       Pues no hay nada ni nadieee


e------(3)------------/
b-------3-------------/
g-------4-------------/
d-------5-------------/
a-------5-------------/
E---------------------/

Que comprenda


e--------------------------------/
b--------------------------------/
g--------------------------------/
d------------2-------------------/
a------2-3-5---3-2-0-------------/
E--3-5---------------1----1//----/


(4:46)


         (Am)
e---------------------------------------------/
b---------5-----------------------------------/
g---------5-----------------------------------/
d---------5-----(2)--------------------------/
a------------3h5-----------3---3---3-3s//5----/
E-1s//5--5-0-------3-5-3h5---5---5------------/


e---------------------------------5--/
b------------1--------------------5--/
g-------------2-------------------5--/
d--------------3------------------7--/
a-(5)-----------3--------------7-----/
E----------------1-------------5-----/

   Y entre los telones de esta farsa


e-------------------------------------/
b-------------------------------------/
g-------------------------------------/
d--------(2)--------------------------/
a-----3h5-----------3---3---3-3s//5---/
E---0-------3-5-3h5---5---5-----------/


e------------------------------------------/
b---------------1-------------7---------7--/
g--------------2-------------5----------5--/
d-------------3-------------7-----------7--/
a-(5)--------3-------------7------------7--/
E-----------1-------------5-------------5--/
 Se sacude ansioso el mistério ete---erno


e-------------------------------------/
b-------------------------------------/
g-------------------------------------/
d--------(2)--------------------------/
a-----3h5-----------3---3---3-3s//5---/
E---0-------3-5-3h5---5---5-----------/


e------------------------/
b------------------------/
g------------------------/
d------------------------/
a-(5)----5-----......----/
E------------------------/

De aquellas misma venaas


e-------------------------------5---/
b-------------------------------5---/
g-----------5--5------5---------5---/
d-----------7--7------7---------7---/
a-5---------7--7------7---------7---/
E-----------6--6------6------s5-5---/

Sangraba Diooooss  Dios! Y su troupe

e-------------------------------------/
b-------------------------------------/
g-------------------------------------/
d--------(2)--------------------------/
a-----3h5-----------3---3---3---------/
E---0-------3-5-3h5---5---5-----------/


|solo el bajo|


|Su ca-ba-za ca-yo|
|                 |
|      Fmaj7 (I)  |
|De rodillas|     |


e----------------0---------------/
b-------------1----1---------1---/
g------------2---------2---------/ juega com Fmaj7
d-----------2--------2-----------/
a--------------------------------/
E----------1-------------2-------/

.. de rodillas

e-------------------------------/
b-------------------------------/
g-------------------------------/
d-----------------2--------------/
a-----------------2--------------/
E-----------------0--------------/


Y su vien-ter ro-do


e-------------------0------------/
b------------------1-------------/
g-----------------2--------------/
d----------------2---------------/
a-------------------------------/
E---------------1----------------/

 Por entre el trafico


              |G|
e-------------------------------/
b---------------0-0h1p0---------------/
g----------------------(2)---------/
d-------------------------------/
a-------------------------------/
E------------(3)-------------3------/

Que es (i?)regula-aaar

e-------------------------------------/
b-------------------------------------/
g-------------------------------------/
d--------(2)--------------------------/
a-----3h5-----------3---3---3---------/
E---0-------3-5-3h5---5---5-----------/


        A7               C7

e---9--7--------9---7----12~---/
b----8----7-7-7--8-------11~---/ muteado
g-----9----9-9----9------12~---/
d------------------------10~---/
a------------------------------/
E------------------------------/

        A7              Cmaj7

e---9--7--------9---7----12~---/
b----8----7-7-7--8-------12~---/
g-----9----9-9----9------12~---/ muteado
d------------------------10~---/
a------------------------------/
E------------------------------/

e---------7-------7------7--------/
b----------8-------(8)-------7-7--/
g-------7-------6------5-----8-8--/ X4
d-----0----------------------9-9--/
a----------------------------9-9--/
E--------------------------0-7-7--/


                             (Gm6)
e---7-777-----7-777----7-----*-----------/
b---7-777-----7-777----7------(3)--------/
g---7-777-77--7-777-77-7--777--3~--------/
d---9-999-99--8-888-88-7--777--2~--------/
a------------------------------x---------/
E------------------------------3---------/

                             (G#m6)
e---7-777-----7-777----7---9-*-----------/
b---7-777-----7-777----7------(4)--------/
g---7-777-77--7-777-77-7--777--4~--------/
d---9-999-99--8-888-88-7--777--3~--------/
a------------------------------x---------/


(7:10)

     ¡ ¡!             ¡!

e-----------------------------------------/
b--5-5-555.s.7--7777--77-----9999--99-----/
g--5-5-555.s.7--7777--77---8-8888--88-----/
d--4-4-444.s.6--6666--66---9-9999--99-----/
a--x-x-xxx---x--xxxx--xx---7-7777--77-----/
E--5-5-555.s.7--7777--77--0---------------/


e--------------------------------------------/
b--5-5555-555---7--7777--77-----9999--99-----/
g--5-5555-555---7--7777--77---8-8888--88-----/
d--4-4444-444---6--6666--66---9-9999--99-----/
a--x-xxxx-xxx---x--xxxx--xx---7-7777--77-----/
E--5-5555-555.s.7--7777--77--0---------------/

                      ¡
e--------------------------/
b--5-5555-555---7--7-------/
g--5-5555-555---7--7--6----/
d--4-4444-444---6--6--6----/
a--x-xxxx-xxx---x--x--4----/
E--5-5555-555.s.7----------/


culquier duda consulten a peavey_raptorplus@

Y otra cosa..
Ya existe el sitio en donde estan todas las tabs de invisible

entren a 


musicos invisibles...

            
            
Suggest correction
Creating personal tab
Creating personal tab
You can edit any tab online and save it as your Personal.

You can edit, replace or remove any tab part or add personal notes – all changes will be seen only by you.

Personal tabs can be accessed anytime from any device, even offline.
Learn more »
Give kudos to tab author, rate the tab!
1 2 3 4 5
comments
print report bad tab
guest
Wanna post a correction for this tab? Suggest correction