Oops, an error
Loading. Please wait.

Jugo De Lucuma bass

962 views 6 this week
no commentswrite comment
1 2 3 4 5
3 more votes to show rating
add to favorites
×
Save as Personal and add changes to this tab that will be seen only by you. Learn more ›
×
You can save this tab as Personal to edit and correct it or add notes. All changes will be seen only by you. Learn more »
launch autoscroll
font size
0
reset
guitar tuner
edit
Autoscroll
slow
fast
+/-
esc
set tempo
stop
1:02
       (2 veces)            (2 veces)
G|-------------------|-------------------|
D|-0-6-5-4-----------|-------------------|
A|----------0h2h3----|-0-8-7-6--0h2h3----|
E|---------------3-2-|-----------------2-|

        (2 veces)             (2 veces)
G|---------------------|---------------------|
D|---6-5-4-3-----------|---3-2-1-------------|
A|-4----------0h2h3----|-1-------5--0h2h3----|
E|-----------------3-2-|-----------------3-2-|

G|------------------------------------------------------------
D|----------9-9-----11-9--------------------------------------
A|-----9--11----12--------11-10--8-7----------------------2-4-
E|--9--------------9------------------8-7--5-7--7-0--2-4------
                           ??Jugo de lucuma?
G|---------------------------------------
D|------9-9-----11-9-13-11-13-14-13-10-9-
A|-9--11----12---------------------------
E|-------------9-------------------------
                                          ?chorreando en mi?
G|-------------------------------------------------------
D|------9-9-----11-9-------------------------------------
A|-9--11----12--------11-10--8-7---------------------2-4-
E|-------------9------------------8-7--5-7--7-0--2-4-----
                           ?patas de muebles de?
G|-------------------------------------
D|------9-9----------------------------
A|-9--11----12-------------------------
E|-------------7|9-7-11-9-11-12-11-8-7-
?bronce?                           ?caminan ya?
G|---------------------------------------------------
D|------9-9-----11-9---11-9---11-9-11-9--------------
A|-9--11----12--------------------------11-10-9------
E|-------------9------9------9------------------12-9-
                               ?ardiendo esta?           ?apenas?
G|----------------------------------------------9-----------
D|------9-9-----11-9-13-11-13-14--------------9---9---------
A|-9--11----12------------------0----------7--------7-7---7-
E|-------------9--------------------------------------------
   ?solas?  ?las esferas?     ?esperando por ella?
G|------------------------6-6-6-6-----------------------
D|----------6-------------------------5-----------------
A|-----------------4---4----------4---------------------
E|-0-4---4--------------------------3---------6---------

2:09                      (2 veces)
G|-----------|-------------------------------|
D|-----------|-------------------------------|
A|----1--3---|---------4--------------4------|
E|-1---------|--5-5-3-----0-0--5-5-3-----4-4-|

(repite lo del verso)
G|------------------------------------------------------------
D|----------9-9-----11-9--------------------------------------
A|-----9--11----12--------11-10--8-7----------------------2-4-
E|--9--------------9------------------8-7--5-7--7-0--2-4------

                            ?lorena duerme?
G|---------------------------------------
D|------9-9-----11-9-13-11-13-14-13-10-9-
A|-9--11----12---------------------------
E|-------------9-------------------------
                                          ?perdio los zapatos?
G|-------------------------------------------------------
D|------9-9-----11-9-------------------------------------
A|-9--11----12--------11-10--8-7---------------------2-4-
E|-------------9------------------8-7--5-7--7-0--2-4-----
                            ?manchas de rouge y?
G|-------------------------------------
D|------9-9----------------------------
A|-9--11----12-------------------------
E|-------------7|9-7-11-9-11-12-11-8-7-
?sangre?                           ?impiden verla?
G|---------------------------------------------------
D|------9-9-----11-9---11-9---11-9-11-9--------------
A|-9--11----12--------------------------11-10-9------
E|-------------9------9------9------------------12-9-
                              ?arcos de luces?        ?de aquella?
G|----------------------------------------------9-----------
D|------9-9-----11-9-13-11-13-14--------------9---9---------
A|-9--11----12------------------0----------7--------7-7---7-
E|-------------9--------------------------------------------
   ?noche  ?en la que bebi, de su cuerpo de lucuma?
G|------------------------6-6-6-6-----------------------
D|----------6-------------------------5-----------------
A|-----------------4---4----------4---------------------
E|-0-4---4---4----------------------3---------6---------

3:06                     (2 veces)
G|-----------|-------------------------------|
D|-----------|-------------------------------|
A|----1--3---|---------4--------------4------|
E|-1---------|--5-5-3-----4-4--5-5-3-----0-0-|

?du du du?
G|-----------------------------------------------------------------
D|---------------------6-6----------------------------------7------
A|-------4---4-------4----2----2--0-3-3-3-3-3-0-7----7-------------
E|-------------0-4--------------------------------------0-5---5--0-


G|---------------------------------5---------------------------
D|---6--------4------------2-4-5--5--5\2-----------------------
A|-------------------3---3--------------3--2--2--0-3-3-3-3-3-0-
E|-4---4--0-2---2--1-------------------------------------------


G|-----------4-6-4-6-4-8----8--8----8---------6-6-6-4------6-4----------
D|--------4-6---------------------8--8------6---------6h5h4---6-5-4-----
A|-4---4h7----------------------6------6-4--------------------------7-4-
E|----------------------------------------------------------------------

?voy a extrañar una cancion?                   ?y ninguna mas, ya que a?
G|-------------------------------------------------------6-------------
D|-------------10--10-10--11--11--11--9--9--7-----------6--6-5-4-------
A|-----------8----8-----9----9------7----------------4-----------7-4---
E|--------------------------------------------5---5-5----------------7-
?encontre en tu dormitorio?
G|----------------------------------------------------------|
D|-----6--6-4-----------4--4-4-2-------4-2-------2-4/16\4---|
A|------------6-------------------4--2-----4-2-4----------0-|
E|-4------------4---2---------------------------------------|

4:02
           (6 veces)
G|-------------------6-6-4-5-6--|----------------------------------------|
D|---------4-4-6--------6-------|-------4--4-----------------------------|
A|-4-4-7-7-------2-4----------4-|-4-4-7-----7|4--------------------------|
E|------------------------------|--------------4-------------------------|

x|x : tocar las dos notas consecutivamente rápido por Ej. 7|4
   h: hammer on (ligado)
   /: slide up
   \: slide down
 (x): nota opcional

Jugo de lucuma (Invisible)

Jugo de lucuma, chorreando en mi
patas de mueble de bronce, caminan ya
ardiendo esta, apenas sola
las esferas esperando por ella

Lorena duerme, perdio los zapatos
manchas de rouge y sangre impiden verla
arcos de luces, de aquella noche
en la que bebi de su cuerpo de lucuma

Voy a extrañar, una cancion
y ninguna mas, ya que a esta la encontre
en tu dormitorio.


Mientras sus temas se sigan tocando y escuchando el Carpo y el
Flaco jamás morirán, vivirán eternamente en la memoria de todos...
e-mail: zarathustra4321@

            
            
Suggest correction
Creating personal tab
Creating personal tab
You can edit any tab online and save it as your Personal.

You can edit, replace or remove any tab part or add personal notes – all changes will be seen only by you.

Personal tabs can be accessed anytime from any device, even offline.
Learn more »
Give kudos to tab author, rate the tab!
1 2 3 4 5
comments
print report bad tab
guest
Wanna post a correction for this tab? Suggest correction