Oops, an error
Loading. Please wait.

Jugo De Lucuma tab

version 2
version 2

Whole song

144 views 1 this week
no commentswrite comment
1 2 3 4 5
3 more votes to show rating
add to favorites
×
Save as Personal and add changes to this tab that will be seen only by you. Learn more ›
×
You can save this tab as Personal to edit and correct it or add notes. All changes will be seen only by you. Learn more »
launch autoscroll
font size
0
reset
how to read this tab
guitar tuner
edit
Autoscroll
slow
fast
+/-
esc
set tempo
stop
e------------------------
b------------------------
g------------------------        X2
d-----6-5-4--------------
a-------------1h2h3------
E--4-----------------3-2-

e------------------------
b------------------------
g------------------------        X2
d-----3-2-1~-------------
a-------------0h1h2------
E--3-----------------3-2-

e------------------------
b------------------------
g------------------------
d-----6-5-4-3------------       X2
a-------------1h2h3------
E--4-----------------3-2-

e------------------------
b------------------------
g------------------------
d-----3-2-1-0------------      X2
a-------------0h1h2------
E--3-----------------3-2-


C#m7 RIFF1  Emaj7  G#9      (x2)

Jugo de lúcuma
chorreando en mí,
patas de mueble de bronce
caminan ya

RIFF1
e------------
b------------
g------------
d-------9-9s7
a-9s11-------
E------------

A         E9            G#
Ardiendo están, apenas solas
       C#maj7
las esferas,
     Cm       Bbm
esperando por ellas.


F    Bbm    Cm7

RIFF2 x4
RIFF2
e--------------------9---9-9-----/
b----12---12-11--9---10--9-9-----/
g----12---12-11--9---------------/
d--------------------------------/
a--------------------------------/
E--------------------------------/


SOLO


e-----------------------------------------4-----4--------------------
b---------------------------------------5-----5---5------------------
g------5-6-8-9-----6--9-9-----------5-6-------------4----------------
d--6-8--------------------6-----6-8-------------------7--------------
a---------------------------9----------------------------------------
E--------------------------------------------------------------------

e----------7-7----7----------------------------9-11----9---------14--
b------5-8------8---81087--------------9-10-12------12---10-9--------
g----6--------------------91198---9-11------------------------11-----
d--7-----------------------------------------------------------------
a--------------------------------------------------------------------
E--------------------------------------------------------------------

e----------------------------------------4---------------------------
b--------------------------------------------5----7------------------
g------------------------4-6-8-8-----6-----6---------4---------------
d--9---------------4-4h6---------------------------------------------
a----11------9-------------------------------------------------------
E-------12-9---------------------------------------------------------

           Fmaj7
Voy a extrañar
B          E
 una canción
A           C#m
 Y ninguna más
                       G#m
Ya que a esta la encontré
           F#m
en tu dormitorio.


Con Wah y distorsión es difícil de sacar perfecto

e----------9-12-9-12b-9--------------------------/
b--9-10-12-----------------------14--------------/
g-----------------------13-11h13----13-11-b11----/ X6
d------------------------------------------------/
a------------------------------------------------/
E------------------------------------------------/


Acordes

C#m7  (9  11 9  9  9  9)
Emaj7 (x  7  9  8  9  7)
G#9+  (x  11 10 11 12 x)
A     (5  7  7  6  5  5)
E9+   (0  7  6  7  8  x)
G#     (4  6  6  5  4  4)
C#maj7 (x  4  6  5  6  4)
Cm     (8  10 10 8  8  8)
Bbm    (6  8  8  6  6  6)
F      (x  8  7  5  6  5)
Cm7    (8  10 8  8  8  8)
Fmaj7  (x  8  10 9  10 8)
B      (7  9  9  8  7  7)
E      (0  2  2  1  0  0)
C#m    (x  4  6  6  5  4)
G#m    (4  6  6  4  4  4)
F#m    (2  4  4  2  2  2)

Donde dice E9 en realidad es E9+, con la novena aumentada.
En la segunda cuerda se toca el traste 8, no 7.

Esto es un poco como devolución a  por enseñarme
a tocar la guitarra

Cualquier cosa que necesiten a 

            
            
Suggest correction
Creating personal tab
Creating personal tab
You can edit any tab online and save it as your Personal.

You can edit, replace or remove any tab part or add personal notes – all changes will be seen only by you.

Personal tabs can be accessed anytime from any device, even offline.
Learn more »
Give kudos to tab author, rate the tab!
1 2 3 4 5
comments
print report bad tab
guest
Wanna post a correction for this tab? Suggest correction