Oops, an error
Loading. Please wait.

La Azafata Del Tren Fantasma tab

609 views 1 this week
no commentswrite comment
1 2 3 4 5
3 more votes to show rating
add to favorites
×
Save as Personal and add changes to this tab that will be seen only by you. Learn more ›
×
You can save this tab as Personal to edit and correct it or add notes. All changes will be seen only by you. Learn more »
launch autoscroll
font size
0
reset
how to read this tab
guitar tuner
edit
Autoscroll
slow
fast
+/-
esc
set tempo
stop
Aca va la parte de guitarra que hace años
que venia buscando y nunca nadie subia

hice el esfuerzo y lo saque lo mejor que pude;
los acordes fijense de hacerlos con
las mismas posiciones que escribo que asi me sonaron a mi

Riff 1

G|-----------------------------------------------------------------|
D|-------7-9-10-9-7--7--------------------5-7-8-7-5---5------------|
A|-7-9-10----------10-10-9-7-9-7-7---5-7-8---------8p7-8-7-5-7-5-5-|
E|-----------------------------------------------------------------|

G|-----------------------------------------------------------------|
D|-------7-9-10-9-7--7--------------------5-7-8-7-5---5------------|
A|-7-9-10----------10-10-9-7-9-7-7---5-7-8---------8p7-8-7-5-7-5-5-|
E|-----------------------------------------------------------------|

G|-----------------------------------------------------------------|
D|-----------------------------------------5-7-8-7-5-5-------------|
A|-------3-5-7-5-3---3---------------5-7-8----------7--7-----------|
E|-3-5-7-----------7--7-7p5-3-5-3-3--------------------------------|


G|-----------------------------------------------------------------|
D|-------7-9-10-9-7--7--------------------5-7-8-7-5---5------------|
A|-7-9-10----------10-10-9-7-9-7-7---5-7-8---------8p7-8-7-5-7-5-5-|
E|-----------------------------------------------------------------|


Em   |EbMaj7|  D    Dmaj7/C#
EL rey come su carne bebe de más

Siven mesas en llamas y agria la sal


Fmaj7           Ebmaj7               Bb
El señor del   castillo va a la reunion

Em                Cadd9           A      G
Con la escena muriente de un bufon      aaaa

 G5    A5   Bb5


C                             Ebm7   Ebm7/F
Y en la escalera está la aza  fa     tá
Ebm   F#maj7   C7   Bmaj7
Del   tren    fan   tasma

C                             Ebm7   Ebm7/F
Y en la escalera está la aza  fa     tá
Ebm   F#maj7   C7   Bmaj7
Del   tren    fan   tasma

Riff 1 (con variaciones ;)

G|-----------------------------------------------------------------|
D|-------7-9-10-9-7--7--------------------5-7-8-7-5---5------------|
A|-7-9-10----------10-10-9-7-9-7-7---5-7-8---------8p7-8-7-5-7-5-5-|
E|-----------------------------------------------------------------|


D5 (crescendo)

G|-------------|---12----------------------|
D|--7-7-7-7-7-7|---12---5------------------|
A|--5-5-5-5-5-5|----------8-7-5-7-5-5------|
E|-------------|---12----------------------|
                 aaaaaaaaaaaa


G|---------------------------------|-------10-------------------------|
D|---------------------------------|----10-----5----------------------|
A|-------3-5-7-5-3---3-------------|-------------8-7-5-7-5-5----------|
E|-3-5-7-----------7--7-7p5-3-5-3-3|-10-------------------------------|


Em   |EbMaj7|        D         Dmaj7/C#
EL rey hurga en sus muelas    antes de armar

y sus vasallos vomitan tanta traición


Fmaj7              Ebmaj7               Bb
hasta que lentamente uno de ellos se acerca

Em                Cadd9           A      G
Y le clava una daga por la espalda       aaaa

 G5    A5   Bb5


C                             Ebm7   Ebm7/F
Y en el jardin   está la aza  fa     tá
Ebm   F#maj7   C7   Bmaj7
Del   tren    fan   tasma

C                          Ebm7   Ebm7/F
La puedo ver reir a la aza fa     ta
Ebm   F#maj7   C7   Bmaj7
Del   tren    fan   tasma


Cuelgue de 2 minutos,
 solo improvisado que empieza en Si mayor y despues se delira


y sigue la parte B

Riff 2

G|------------------------------------------------------|
D|--------------10----------------10--------------------|
A|----10-12-10-----12----10-12-10----12-12--10-12-------|
E|-12-----------------12--------------------------------|


Juega con este riff, haciendole pequeñas variaciones y luego

E5               C5      D5
COn sus manos de Frio el rey dormira


Riff 2


E5               C5      D5
Y la eterna azafata lo embalsamará


Riff 2

E5             C5                 D5
No habrá flores ni vientos que lo hagan gritar!


Acordes


Cuerda   1 2 3 4 5 6

    em:  7 8 9 9 7 x
 EbMaj7: x 8 7 5 6 x
      D: 5 7 7 7 5 x
DMaj/C#: x 7 6 7 4 x
  CMaj7: 0 0 0 2 3 3
  Fmaj7: 8 9 8 9 8 x
     Bb: 6 6 7 8 8 6
  Cadd9: 3 3 0 2 3 x
      A: 5 5 6 7 7 5
 Ebm7/F: 6 7 6 8 8 x
 F#Maj7: 4 4 4 2 x x
     C7: 6 5 3 x x x
  BMaj7: 2 4 3 4 2 x


Eso es todo, toquen mucho y larga vida al flaco que todavia vive en su musica!
fernán :)

            
            
Suggest correction
Creating personal tab
Creating personal tab
You can edit any tab online and save it as your Personal.

You can edit, replace or remove any tab part or add personal notes – all changes will be seen only by you.

Personal tabs can be accessed anytime from any device, even offline.
Learn more »
Give kudos to tab author, rate the tab!
1 2 3 4 5
comments
print report bad tab
guest
Wanna post a correction for this tab? Suggest correction