Oops, an error
Loading. Please wait.

Ruido De Magia bass

59 views 1 this week
no commentswrite comment
1 2 3 4 5
3 more votes to show rating
add to favorites
×
Save as Personal and add changes to this tab that will be seen only by you. Learn more ›
×
You can save this tab as Personal to edit and correct it or add notes. All changes will be seen only by you. Learn more »
launch autoscroll
font size
0
reset
guitar tuner
edit
Autoscroll
slow
fast
+/-
esc
set tempo
stop
Los guiones los puse en algunas partes para ubicarse mejor en el tiempo:
marcan la mitad de cada compas.

   -          -          -          -
G|-6----4------------------11--11-----11--11---
D|--------7------------------------------------
A|------------5----------9----------9----------
E|---------------------------------------------

   -          -          -          -
G|-6----4------------------11--11---11--11--11-
D|--------7------------------------------------
A|------------5----5-----9---------------------
E|---------------------------------------------

   -          -          -          -
    ?Te vi como mecida, en blanco?
G|---------------------------------------------
D|---------------------------------------------
A|-0-----0----3---3--3---5---5--5---5---5--5---
E|---------------------------------------------

   -          -          -          -
   ?cubierta de racimos, mas que blancos?
G|-------------------------------------7---7---
D|---------------------------------------------
A|-0-----0----3-----3----5---5--5---5---------0
E|---------------------------------------------

   -          -          -            -          -          -
   ?tu fuiste la querida, en la tormenta?
G|----5----------------------------------7---7------7---7---------------
D|-3-----3----2---2--2------3-------------------------------------------
A|----------0----------0-0----3-------5----------5----------5--5--5-5--5
E|------------------------------1-1-1-----------------------------------

   -          -          -          -
   ?no llega ya mi voz, a tu alma?
G|--------------------------7---7------7--------
D|----------------------------------------------
A|-0-----0----3---3--3---5----------5-----5-5--5
E|----------------------------------------------

   -          -          -          -
   ?las ostras se han servido,de tu nácar?
G|---------------5----------7---7------7--5-7--
D|-----------------------------------------7---
A|-0-----0----3-----3--0-5----------5---------0
E|---------------------------------------------

   -          -          -            -          -
   ?mientras oigo tu ruido, ruido de magia?
G|----5----------------------------------7---7--------------
D|-3-----3----2---2--2--------------------------------------
A|----------0------------5--5--5--3-0-5----------3--3--3----
E|----------------------------------------------------------

G|------------------------------------------------------------------------
D|------------------------------------------------------------------------
A|-7-7-7-7-7-7-7-7-7-7-7-7-7-7-7-7-7-7-7-7-7-7-7-7-7-7-7-7-7-7-7-7-7-7-7-7
E|------------------------------------------------------------------------

1:05
G|--------------------------------------------
D|--------------------------------------------
A|-0----------1----------5--------------------
E|----------------------------------1---------

   -          -          -          -
G|--------------------------------------------
D|-------------------------------------------5
A|-0----------1----------5-------------0-5-7--
E|----------------------------------1---------

   -            -            -               -
G|-----------------5-----------------------7-7-5---5------
D|-7---------------------------4-5-6-7-----------7----7\--
A|----0---0---2-3-----3------5----------5-----------------
E|--------------------------------------------------------

   -            -            -              -
G|-----------------5---------------7------7-7--5-------
D|-----------------------------------------------7-5---
A|-0--0--0--0-2-3-----3----0-5-5-5----5----------------
E|-----------------------------------------------------

1:33                                           (2 veces)
   -          -          -            -                -
G|----5-----------------------------|------------------------------|
D|-3-----3----2---2--2--------------|------------------2-----------|
A|----------0------------5--5---5---|------2-0-3-2-5-3----5-3-2----|
E|----------------------------------|-5--3----------------------5/-|

   -                -             -                 -
G|----------------------------------------------------------------
D|------------------2-------------------------------2-------------
A|------2-0-3-2-5-3----5-3-2------------2-0-3-2-5-3----5-3-2------
E|-5--3----------------------5-3--5--3-----------------------5-0--

G|-----------------------------------------------------------
D|-----------------------------------------------------------
A|------7--7------7--7------7--7------7--7------7--7-7-7-7---
E|-0--0------0--0------0--0------0--0------0--0--------------

1:58
   -          -          -          -          -          -
G|------------------------------------------------------------------
D|-7----------------------------------------------------------------
A|------------0----------0----------0--0-------0----------0---------
E|------------------------------------------------------------------

   -                     -
G|----------------------------------------------------
D|-19--19-19-19-19-19-19-19-19-19-19-19-19-19-19-19-19
A|----------------------------------------------------
E|----------------------------------------------------

   -          -          -          -
G|-------------------------11--11--------------
D|-11---9-7------------------------------------
A|------------5-----5-5--9----------9--9----9-9
E|---------------------------------------------

   -          -          -          -
G|-6----4------------------11--11---11---------
D|--------7------------------------------------
A|------------5-----5-5--9-------------9----9-9
E|---------------------------------------------

   -          -          -          -
   ?recuerdo haberte amado asi dormida?
G|-----------------------------------------------
D|-----------------------------------------------
A|-0-----0----3---3--3---5---5--5---5--5--5-5-5-5
E|-----------------------------------------------

   -          -          -          -
   ?en aquellos que fueron debiles sueños?
G|----------------------------------------7-7-5--
D|----------------------------------------------7
A|-0-----0----3-----3----5---5--5---5--5---------
E|-----------------------------------------------

   -          -          -            -          -          -
   ?crepúsculos del fuego sobre tu noche?
G|----5----------------------------------7---7------7---7---------------
D|-3-----3----2---2--2------3-------------------------------------------
A|----------0----------0-0----3-------5----------5----------5--5--5-5--5
E|------------------------------1-1-1-----------------------------------

   -          -           -          -
   ?y asi palpita el dios, que fuiste?
G|-------------------------------7---7-----7-7--
D|----------------------------------------------
A|-0-----0----3---3--3--0-5---5-----------------
E|----------------------------------------------

   -          -          -          -
   ?bailando entre las piernas, gigantes?
G|----------------------------------7--7--7-7-5--
D|----------------------------------------------7
A|-0-----0----3--3--3--0-5--5---5----------------
E|-----------------------------------------------

   -          -          -            -          -
   ?veras que nuestra danza esta quebrada?
G|----5----------------------------------7---7--------------
D|-3-----3----2---2--2--------------------------------------
A|----------0------------5--5--5--3-0-5----------3--3--3----
E|----------------------------------------------------------

G|------------------------------------------------------------------------
D|------------------------------------------------------------------------
A|-7-7-7-7-7-7-7-7-7-7-7-7-7-7-7-7-7-7-7-7-7-7-7-7-7-7-7-7-7-7-7-7-7-7-7-7
E|------------------------------------------------------------------------

3:19
G|--------------------------------------------
D|-----------------------7--------------------
A|-0----------1----------5--------------------
E|----------------------------------1---------

   -          -          -          -
G|--------------------------------------------
D|-----------------------7-------------------5
A|-0----------1----------5-------------0-5-7--
E|----------------------------------1---------

3:33
   -            -            -           -
G|-----------------5------------7---7--5-7-----5-----7--
D|-7------------------------------------7---------7----5
A|----0---0-2---3-----3------5--------------5-----------
E|------------------------------------------------------

   -            -            -           -
G|-----------------5--5-----------------5---7-5--------
D|---------------------------------5h6h7-7-------7-5--5
A|-0------0-----3----------0-5--5----------------------
E|-----------------------------------------------------

   -          -          -             -            -
G|----5----------------------------------------------------------
D|-3-----3----2---2--2--------------5-7----------5-7----------5-7
A|----------0------------5--5---5------0--0---0-----0--0---0-----
E|---------------------------------------------------------------

   -                -
G|---------------12-14--12--12---------
D|-------12h13h14--------------14-12---
A|-0--0------------------------------15
E|-------------------------------------

   -           -           -            -           -
G|-----------------------------------------------------------------
D|----10-----------------------------5-7---------5-7---------------
A|-8------8--5-7--7--7---7-5--5---5-----0--0---0----0--0-0-0-0-0---
E|-----------------------------------------------------------------

4:07
G|--------------------------------------------
D|--------------------------------------------
A|-7--7---7-7-7-7-7-7-7-7-7-7-7-7-7-7-7-7-7-?-
E|--------------------------------------------


 /: slide up (?arrastrar? hacia adelante)
 \: slide down (?arrastrar hacia atrás)
 h: hammer on (ligado)

Ruido de magia (Spinetta)

Te vi como mecida,
en algo...
cubierta de racimos,
más que blancos...
tu fuiste la querida,
en la tormenta...

No llega ya mi voz,
a tu alma...
las ostras se han servido,
de tu nácar...
mientras oigo tu ruido,
ruido de magia...

Recuerdo haberte amado,
así dormida...
en aquellos que fueron,
débiles sueños...
crepúsculos del fuego,
sobre tu noche...

Y así palpita el Dios,
que fuíste...
bailando entre las piernas,
gigantes...
verás que nuestra danza,
está quebrada...

            
            
Suggest correction
Creating personal tab
Creating personal tab
You can edit any tab online and save it as your Personal.

You can edit, replace or remove any tab part or add personal notes – all changes will be seen only by you.

Personal tabs can be accessed anytime from any device, even offline.
Learn more »
Give kudos to tab author, rate the tab!
1 2 3 4 5
comments
print report bad tab
guest
Wanna post a correction for this tab? Suggest correction