Oops, an error
Loading. Please wait.

Beautiful Girl bass

by INXS
3,212 views 3 this week
2 commentsread comments
1 2 3 4 5
x 5
add to favorites
×
Save as Personal and add changes to this tab that will be seen only by you. Learn more ›
×
You can save this tab as Personal to edit and correct it or add notes. All changes will be seen only by you. Learn more »
launch autoscroll
font size
0
reset
guitar tuner
edit
Autoscroll
slow
fast
+/-
esc
set tempo
stop
-------------------------------------------------------------------------------
                             BEAUTIFUL GIRL - INXS
-------------------------------------------------------------------------------

Tabbed By : Martín Grillo
e-mail: kapanguerocatupecu@hotmail.com

Tuning: G,D,A,E

Intro: (Start playing at 0:24)   (Listen to the piano, the notes go together with 
the piano) Play One Time
G|------------------------------------------|
D|-6~--------6~--------2~---4~---2~---4--2--|
A|------6~--------6~------------------------|
E|------------------------------------------|   

Verse: Play 8 times  (Starts at 0:40)
G|--------------|
D|-------2-2~---|
A|-2-2~---------|
E|--------------|

Chorus 1: Play One Time  (Starts at 1:12)
G|---------------------------------------------------------------------------|
D|--4~----6~----2~-------------------6~----2~-----------------2-2~---2-2~----|
A|---------------------2-2/4-2-------------------4-4~---4-4~-----------------|
E|-----------------------------2~--------------------------------------------|

Verse: Play 8 times  (Starts at 1:33)
G|--------------|
D|-------2-2~---|
A|-2-2~---------|
E|--------------|

Sax Solo (= intro section): Play One Time  (Starts at 2:05)
G|-------------------------------------------------------|
D|-------------------------------------------------------|
A|-------6~----------6-4-2-7~----9-9~---7~----9-9~-------|
E|-4~----------4~------------------------------------9-\-|

Verse: Play 4 times  (Starts at 2:22)
G|--------------|
D|-------2-2~---|
A|-2-2~---------|
E|--------------|

Chorus 2: Play One Time  (Starts at 2:37)
G|--------------------------------------------------------------------------------------|
D|--4~----6~----2~-------------------6~----2~----------------------------2-2~---2-2~----|
A|---------------------2-2/4-2-------------------2-2/4-2---4-4~---4-4~------------------|
E|-----------------------------2~-------------------------------------------------------|

Outro: Play 4 times (Starts at 3:01)
G|--------------|
D|-------2-2~---|
A|-2-2~---------|
E|--------------|

End: Play One Time and let ring
G|-----|
D|-----|
A|-2~--|
E|-----|


Notes:
~ :   Let ring
/ :   Slide up
\ :   Slide down
===============================================================================

            
            
Suggest correction
Creating personal tab
Creating personal tab
You can edit any tab online and save it as your Personal.

You can edit, replace or remove any tab part or add personal notes – all changes will be seen only by you.

Personal tabs can be accessed anytime from any device, even offline.
Learn more »
comments
print report bad tab
2 comments total.
0 reply
tbate54 10 Jan 09, 2014 09:09 PM

Nice tab!! Really good work!

guest
You may want to rate the tab now too:
select rating
Wanna post a correction for this tab? Suggest correction