Oops, an error
Loading. Please wait.

Dont Change Bass Tab

version 1
version 1

Whole song

Interactive

by INXS
7,225 views 1 this week
1 commentread comment
1 2 3 4 5
accurate
x 4
add to favorites
launch autoscroll
font size
0
reset
guitar tuner
Autoscroll
slow
fast
+/-
esc
set tempo
stop
Help us to improve Ultimate-Guitar.com Take our survey!
×
Author
Difficulty
Firaga 459
novice
Song: Don't Change
Band: INXS
Tabbed by: Sean C. (kungfusoda@gmail.com)

This is my first tab, so I'm not
sure how good (or terrible) it is.
It sounds fine to me, but any corrections
are gladly welcome.

Intro:
(0:24-0:46)
G|-----------------------|
D|-----------------------|
A|-12/1--7-7-7-7-7-7-7---|
E|-----------------------| 
Keep playing the 7 until 0:46
-or- to add some variety:
G|--------------------------|
D|--------------------------|
A|-12/1--77777777-99999-5-5-|
E|--------------------------|

Verse:
(0:47-1:16)
G|-----------------|
D|-----------------|
A|-7-7-7-7-7-7-7-7-| x2
E|-----------------|

G|-----------------|
D|-----------------|
A|-9-9-9-9-9-9-9-9-| x2
E|-----------------| 

G|-----------------|
D|-----------------|
A|-5-5-5-5-5-5-5-5-| x1
E|-----------------| 

Chorus:
(1:17-1:31)
G|-------------|
D|-------------|
A|-7-7-7-9-9-5-|
E|-------------| 

Intro:
(1:32-1:42)
G|-----------------|
D|-----------------|
A|-7-7-7-7-7-7-7---|
E|-----------------| 
Keep playing the 7 until 1:42
-or-
G|--------------------|
D|--------------------|
A|-77777777-99999-5-5-|
E|--------------------|

Verse:
(1:42-2:11)
G|-----------------|
D|-----------------|
A|-7-7-7-7-7-7-7-7-| x2
E|-----------------|

G|-----------------|
D|-----------------|
A|-9-9-9-9-9-9-9-9-| x2
E|-----------------| 

G|-----------------|
D|-----------------|
A|-5-5-5-5-5-5-5-5-| x1
E|-----------------| 

Chorus:
(2:12-2:28)
G|-------------|
D|-------------|
A|-7-7-7-9-9-5-|
E|-------------| 

Breakdown:
(2:28-2:38)
G|----------------|
D|----------------|
A|-7-7-7-7-7-7-7-7|
E|----------------| 
No bass until 2:38, but play it FAST.

Intro:
(2:39-2:50)
G|-----------------|
D|-----------------|
A|-7-7-7-7-7-7-7---|
E|-----------------| 
-or-
G|--------------------|
D|--------------------|
A|-77777777-99999-5-5-|
E|--------------------|

Verse:
(2:51-3:19)
G|-----------------|
D|-----------------|
A|-7-7-7-7-7-7-7-7-| x2
E|-----------------|

G|-----------------|
D|-----------------|
A|-9-9-9-9-9-9-9-9-| x2
E|-----------------| 

G|-----------------|
D|-----------------|
A|-5-5-5-5-5-5-5-5-| x1
E|-----------------| 

Chorus:
(3:19-3:43)
G|-------------|
D|-------------|
A|-7-7-7-9-9-5-|
E|-------------| 

Ending:
(3:44-4:25)
G|-----------------|
D|-----------------|
A|-7-7-7-7-7-7-7~--|(Let Ring)
E|-----------------| 
-or-
G|----------------------|
D|----------------------|
A|-77777777-99999-5-5-7~| (Let Ring)
E|----------------------|
Suggest correction new What's this?
You can suggest a correction to this tab. Community and Mods will review your correction and vote to approve or reject it.
comments
print report bad tab
1 comment total.
0 reply
AvantNeoPunk 196 wrote on June 4 2011, 01:11 pm

pretty good tab but i feel like you missed a few little riffs here and there

guest
You may want to rate the tab now too:
select rating
Please do not post tabs as comments. Select "correction" instead!