Oops, an error
Loading. Please wait.

Dont Change Bass Tab

version 2
version 2

Whole song

Interactive

by INXS
2,661 views 3 this week
1 commentread comment
1 2 3 4 5
1 last vote to show rating
add to favorites
launch autoscroll
font size
0
reset
guitar tuner
Autoscroll
slow
fast
+/-
esc
set tempo
stop
Help us to improve Ultimate-Guitar.com Take our survey!
×
Author
Difficulty
novice
intro to the verse
G|-----------------------|
D|-----------------------|
A|-----------------------|
E|--12/5---5-5-5-5-5-etc.| 

verse:
G|--------------------------|
D|--------------------------|
A|--------------------------|
E|5-5-5-5-5-5-5-5-4-4-2-2etc|

"she did not change in our directions"   
G|-----------------------|
D|-----------------------|
A|-2-2-2-2-4-4-4-4-------| 
E|-----------------------|

G|-----------------|
D|-----------------|
A|-5-5-5-5-5-5-5-5-| x2
E|-----------------| 
 
dont change  for you
G|----------------------|
D|----------------------|
A|--2-2-2-2-2-4-4-4-4-4-| 
E|----------------------| 

dont change a thing   for me
G|----------------------------|
D|----------------------------|
A|-2-2-2-2-2-4-4-4-4-4--------|
E|----------------------5-5-5-|etc 


Outro
G|----------------------------|
D|----------------------------|
A|----------------------------|
E|-5-5-5-5-5-5-5-5-5-5-5-5-5--|etc


(my first tab)
thats it i think
just get the timeing right and your done
i might have missed out on something though
but im pretty sure its right
Suggest correction
Give kudos to tab author, rate the tab!
1 2 3 4 5
comments
print report bad tab
1 comment total.
0 reply
marisajr09 10 Oct 10, 2008 02:15 PM

Love this song...Pretty sure the 4's on the A string in the Verse are actually 5's or open D. Its a minor 3rd :). Good job though

guest
You may want to rate the tab now too:
select rating
Wanna post a correction for this tab? Suggest correction