Oops, an error
Loading. Please wait.

Dont Change Tab

version 2
version 2

Whole song

Interactive

by INXS
46,998 views 45 this week
2 commentsread comments
1 2 3 4 5
accurate
x 13
add to favorites
launch autoscroll
font size
0
reset
how to read this tab
guitar tuner
Autoscroll
slow
fast
+/-
esc
set tempo
stop
Help us to improve Ultimate-Guitar.com Take our survey!
×
Contributor
Difficulty
L.u.k.e 70
intermediate
This is my first time tabbing so please excuse any mistakes.
Listen to the song for structure and timing.

x= muted sting
~= let note ring
/= slide up
= slide down

Keyboard intro
E-----------------------------------------------|
B-10~----7~----5~---2~--------------------------|
G------9-----6----4-----------------------------|
D-----------------------------------------------|
A-----------------------------------------------|
E-----------------------------------------------|

Guitar comes in with tremolo picking for so long (listen to CD for timing)
E-----------------------------------------------|
B-----------------------------------------------|
G-----------------------------------------------|
D-----------------------------------------------|
A-12-12-12-12-12-12-12-12-12-12-12-12-12-12-12--|
E-----------------------------------------------|

E-----------------------------------------------------------------------------------------------------|
B-----------------------------------------------------------------------------------------------------|
G-14~--9/-11~--{6/-9~--4/-6}~-|{This part can be played in bar chords, 
sounds good played in octaves}
A-12~--7/-9~---{4/-7~--2/-4}~-------------------------------------------------------------------------|
E-----------------------------------------------------------------------------------------------------|

The chords for the verse are:

A                                A,G#
I'm standing here on the ground,
F#
the sky above won't fall down
Bm         D        A
see no evil in all direction...

Chorus:
Bm               D
Don't change for you
Bm             D          A
Don't change a thing for me


Sometimes while the A chord is strummed after the chorus, a second guitar plays this:
E----9--------9-----|
B-10---11--10---11~-|
G-------------------|
D-------------------|
A-------------------|
E-------------------|

At the end:
F#      E     D   }x2  |   When D is strummed the second time, guitar 2
Don't...Cha...nge      |   plays this:
                       |   E--------------------|
                       |   B-6/-7-777-----------|
                       |   G-6/-7-777-----------|
                       |   A-4/-5-555-----------|
                       |   E--------------------|

End on A chord
Suggest correction new What's this?
You can suggest a correction to this tab. Community and Mods will review your correction and vote to approve or reject it.
comments
print report bad tab
2 comments total.
0 reply
sguitar 1,200 wrote on June 4 2009, 07:16 am

E----9--------9-----|
B-10---11--10---11~-|

should be

E----9--------9-----|
B-10---7---10----7~-|

and i think the F# should be F#m.

0 reply
VHLynchRhoads 35 wrote on July 27 2013, 10:18 am

VERY NICE!!

guest
You may want to rate the tab now too:
select rating
Please do not post tabs as comments. Select "correction" instead!