Oops, an error
Loading. Please wait.

Dont Change Bass Tab

version 3
version 3

Whole song

Interactive

by INXS
4,208 views 15 this week
1 commentread comment
1 2 3 4 5
accurate
x 7
add to favorites
launch autoscroll
font size
0
reset
guitar tuner
Tab Pro tools
  • play this tab
  • loop segment
  • change instrument
  • show fretboard
  • metronome
Autoscroll
slow
fast
+/-
esc
set tempo
stop
Contributor
Difficulty
novice
INTRO:
(First keyboard then guitar kicks in for 4 measures, 
bass comes in at the end of the 4th)
|----------------|----------------|----------------|----------------|
|----------------|----------------|----------------|----------------|
|----------------|----------------|----------------|----------------|
|----------------|----------------|----------------|------------12\-|
 A                A                A                A
|----------------|----------------|----------------|----------------|
|0---------------|----------------|----------------|---------------0|
|0---------------|----------------|----------------|---------------0|
|5-5-5-5-5-5-5-5-|5-5-5-5-5-5-5-5-|5-5-5-5-5-5-5-5-|5-5-5-5-5-5-5-5-|
(Repeat 3 more times)

VERSE1:
 A                A                A                A       G#
|----------------|----------------|----------------|----------------|
|----------------|----------------|----------------|----------------|
|----------------|----------------|----------------|----------------|
|5-5-5-5-5-5-5-5-|5-5-5-5-5-5-5-5-|5-5-5-5-5-5-5-5-|5-5-5-5-4-4-4-4-|
 F#               F#               F#               F#
|----------------|----------------|----------------|----------------|
|----------------|----------------|----------------|----------------|
|----------------|----------------|----------------|----------------|
|2-2-2-2-2-2-2-2-|2-2-2-2-2-2-2-2-|2-2-2-2-2-2-2-2-|2-2-2-2-2-2-2-2-|
 B                D                A                A
|----------------|----------------|----------------|----------------|
|----------------|----------------|----------------|----------------|
|2-2-2-2-2-2-2-2-|5-5-5-5-5-5-5-5-|----------------|----------------|
|----------------|----------------|5-5-5-5-5-5-5-5-|5-5-5-5-5-5-5-5-|
 A                A                A                A       G#  
|----------------|----------------|----------------|----------------|
|----------------|----------------|----------------|----------------|
|----------------|----------------|----------------|----------------|
|5-5-5-5-5-5-5-5-|5-5-5-5-5-5-5-5-|5-5-5-5-5-5-5-5-|5-5-5-5-4-4-4-4-|
 F#               F#               F#               F#
|----------------|----------------|----------------|----------------|
|----------------|----------------|----------------|----------------|
|----------------|----------------|----------------|----------------|
|2-2-2-2-2-2-2-2-|2-2-2-2-2-2-2-2-|2-2-2-2-2-2-2-2-|2-2-2-2-2-2-2-2-|

CHORUS1
 B                D                B                D
|----------------|----------------|----------------|----------------|
|----------------|----------------|----------------|----------------|
|2-2-2-2-2-2-2-2-|5-5-5-5-5-5-5-5-|2-2-2-2-2-2-2-2-|5-5-5-5-5-5-5-5-|
|----------------|----------------|----------------|----------------|
 A                A
|----------------|----------------|
|----------------|----------------|
|----------------|----------------|
|5-5-5-5-5-5-5-5-|5-5-5-5-5-5-5-5-|
 B                D                B                D
|----------------|----------------|----------------|----------------|
|----------------|----------------|----------------|----------------|
|2-2-2-2-2-2-2-2-|5-5-5-5-5-5-5-5-|2-2-2-2-2-2-2-2-|5-5-5-5-5-5-5-5-|
|----------------|----------------|----------------|----------------|
 

POST CHORUS1
 A                A                A                A
|----------------|----------------|----------------|----------------|
|0---------------|----------------|----------------|---------------0|
|0---------------|----------------|----------------|---------------0|
|5-5-5-5-5-5-5-5-|5-5-5-5-5-5-5-5-|5-5-5-5-5-5-5-5-|5-5-5-5-5-5-5-5-|
(Repeat once)

VERSE2:  SAME AS VERSE 1

CHORUS2: SAME AS CHORUS 1

BRIDGE:
|----------------|----------------|----------------|----------------|
|----------------|----------------|----------------|----------------|
|----------------|----------------|----------------|----------------|
|----------------|----------------|----------------|----------------|

|----------------|----------------|----------------|----------------|
|----------------|----------------|----------------|----------------|
|----------------|----------------|----------------|----------------|
|----------------|----------------|----------------|------------12\-|
 A                A                A                A 
|----------------|----------------|----------------|----------------|
|0---------------|----------------|----------------|---------------0|
|0---------------|----------------|----------------|---------------0|
|5-5-5-5-5-5-5-5-|5-5-5-5-5-5-5-5-|5-5-5-5-5-5-5-5-|5-5-5-5-5-5-5-5-|
(Repeat once)

VERSE3:  SAME AS VERSE 1 & 2

CHORUS3
 B                D                B                D
|----------------|----------------|----------------|----------------|
|----------------|----------------|----------------|----------------|
|2-2-2-2-2-2-2-2-|5-5-5-5-5-5-5-5-|2-2-2-2-2-2-2-2-|5-5-5-5-5-5-5-5-|
|----------------|----------------|----------------|----------------|
 A                A
|----------------|----------------|
|----------------|----------------|
|----------------|----------------|
|5-5-5-5-5-5-5-5-|5-5-5-5-5-5-5-5-|
 B                D                B                D 
|----------------|----------------|----------------|----------------|
|----------------|----------------|----------------|----------------|
|2-2-2-2-2-2-2-2-|5-5-5-5-5-5-5-5-|2-2-2-2-2-2-2-2-|5-5-5-5-5-5-5-5-|
|----------------|----------------|----------------|----------------|
 A                A
|----------------|----------------|
|----------------|----------------|
|----------------|----------------|
|5-5-5-5-5-5-5-5-|5-5-5-5-5-5-5-5-|
 B                D                B                D 
|----------------|----------------|----------------|----------------|
|----------------|----------------|----------------|----------------|
|2-2-2-2-2-2-2-2-|5-5-5-5-5-5-5-5-|2-2-2-2-2-2-2-2-|5-5-5-5-5-5-5-5-|
|----------------|----------------|----------------|----------------|
 

OUTRO
 A                A                A                A
|----------------|----------------|----------------|----------------|
|----------------|----------------|----------------|----------------|
|----------------|----------------|----------------|----------------|
|5-5-5-5-5-5-5-5-|5-5-5-5-5-5-5-5-|5-5-5-5-5-5-5-5-|5-5-5-5-5-5-5-5-|
 A                A                A                A
|----------------|----------------|----------------|----------------|
|----------------|----------------|----------------|----------------|
|----------------|----------------|----------------|----------------|
|5-5-5-5-5-5-5-5-|5-5-5-5-5-5-5-5-|5-5-5-5-5-5-5-5-|5-5-5-5-5-5-5-5-|
 F#               F#                E                E 
|----------------|----------------|----------------|----------------|
|----------------|----------------|----------------|----------------|
|9-9-9-9-9-9-9-9-|9-9-9-9-9-9-9-9-|7-7-7-7-7-7-7-7-|7-7-7-7-7-7-7-7-|
|----------------|----------------|----------------|----------------|
 D                D
|----------------|----------------|
|----------------|----------------|
|5-5-5-5-5-5-5-5-|5-5-5-5-5-5-5-5-|
|----------------|----------------|
 F#               F#                E                E  
|----------------|----------------|----------------|----------------|
|----------------|----------------|----------------|----------------|
|9-9-9-9-9-9-9-9-|9-9-9-9-9-9-9-9-|7-7-7-7-7-7-7-7-|7-7-7-7-7-7-7-7-|
|----------------|----------------|----------------|----------------|
 D                D                D                D
|----------------|----------------|----------------|----------------|
|----------------|----------------|----------------|----------------|
|5-5-5-5-5-5-5-5-|5-5-5-5-5-5-5-5-|5-5-5-5-5-5-5-5-|5-5-5-5-5-5-5-5-|
|----------------|----------------|----------------|----------------|
 A
|----------------|----------------|----------------|----------------|
|----------------|----------------|----------------|----------------|
|----------------|----------------|----------------|----------------|
|5~--------------|----------------|----------------|----------------|
comments
print report bad tab
1 comment total.
0 reply
Ryuzaki_13 wrote on November 7 2012, 12:13 am

I've gone through all the tabs for this song. You are the only one that got it right. Great job.

I want to post or [tab]
guest
You may want to rate the tab now too:
select rating
Please do not post tabs as comments. Select "correction" instead!