Oops, an error
Loading. Please wait.

Dont Change Bass

version 3
version 3

Whole song

Interactive

by INXS
767 views 15 this week
no commentswrite comment
1 2 3 4 5
1 last vote to show rating
add to favorites
launch autoscroll
font size
0
reset
guitar tuner
backing track
0:00
0:00
Autoscroll
slow
fast
+/-
esc
set tempo
stop
Author
-----------------------------------------------------------------------------
                             DON'T CHANGE - INXS
-----------------------------------------------------------------------------

Tabbed by: Matt Broback
E-mail: 37hambone@gmail.com

Tuning: E A D G

t = triplet

INTRO   x15
|----------|---------|
|:--------:|---------|
|:--------:|---------|
|----------|-------9\|

|--------|--------|---------|--------|--------|--------|--------|--------|
|--7--77-|7--7--7-|-----7--7|---7-7--|7--7--7-|-7--7---|--7--7--|7-7-----|
|--------|--------|-ttt-----|--------|--------|--------|--------|--------|
|55-55---|-55-5--5|55555--5-|--5-5-55|-55-55-5|5-55--55|55-55-55|-5-5\---|

|--------|--------|---------|--------|--------|--------|--------|--------|
|--7--77-|7--7--7-|-----7--7|---7-7--|7--7--7-|-7--7--7|--7--7--|7--7\---|
|--------|--------|-ttt-----|--------|--------|--------|--------|--------|
|55-55---|-55-5--5|55555--5-|--5-5-55|-55-55-5|5-55--5-|55-55-55|-55-----|

VERSE 1
|--------|--------|--------|--------|--------|--------|--------|--------|
|--------|--------|--------|--------|--------|--------|--------|--------|
|--------|--------|--------|--------|--------|--------|--------|-------0|
|5-555555|55555555|55555555|55554444|2-222222|22222222|22222222|2220202-|

|--------|-7-7-7--|--------|--------|--------|--------|--------|--------|
|--------|--------|---7---7|-7-7----|--------|--------|--------|--------|
|2-222-2/|5-5-5-5-|--------|--------|--------|--------|--------|--------|
|--------|-------7|5-5-5-5-|5-5-2-0-|5-555555|55555555|55555555|5-5-4-4-|
                                             
|--------|--------|--------|--------|
|--------|--------|--------|--------|
|--------|--------|--------|-------0|
|2-222222|22222222|22222222|2220202-|

CHORUS 1
|--------|-7-7----|--------|-7-7-7--|--------|--------|
|--------|--------|--------|--------|--7-7---|--7-7---|
|2-222-2/|5-5-5-55|2-222-2/|5-5-5-5-|--------|--------|
|--------|--------|--------|-------7|5--5-55-|5--5-55-|

|--------|-7-7-7--|--------|-7-7-7--|
|--------|--------|--------|--------|
|2-222-2/|5-5-5---|2-222-2/|5-5-5-5-|
|--------|--------|--------|-------7|

BRIDGE 1
|--------|--------|--------|--------|--------|--------|--------|--------|
|--7-7---|7-7-7---|--7--7--|7--7----|-7--7--7|--7--7--|7--7--7-|-7-7----|
|--------|--------|--------|--------|--------|--------|--------|--------|
|5--5-55-|-5-5--55|55-55-55|-55---55|5-55--5-|55--5-55|-55-55--|5-5-2-0-|

VERSE 2
|--------|--------|--------|--------|--------|--------|--------|--------|
|--------|--------|--------|--------|--------|--------|--------|--------|
|--------|--------|--------|--------|--------|--------|--------|-------0|
|5-555555|55555555|55555555|5-5-4-4-|22222-2-|22222-2-|22222-2-|2220202-|

|--------|-7-7-7--|--------|--------|--------|--------|--------|--------|
|--------|--------|---7---7|-7-7----|--------|--------|--------|--------|
|2-222-2/|5-5-5-5-|--------|--------|--------|--------|--------|--------|
|--------|-------7|5-5-5-5-|5-5-2-0-|5-555555|55555555|55555555|55554444|

|--------|--------|--------|--------|
|--------|--------|--------|--------|
|--------|--------|--------|-------0|
|22222222|22222222|22222222|2220202-|

CHORUS 2
|--------|-7-7----|--------|-7-7-7--|--------|--------|
|--------|--------|--------|--------|--7-7---|--7-7---|
|2-222-2/|5-5-5-55|2-222-2/|5-5-5-5-|--------|--------|
|--------|--------|--------|-------7|5--5-55-|5--5-55-|

|--------|-7-7----|--------|-7-7----|
|--------|--------|--------|----4-46|
|2-222-2/|5-5-5-55|2-222-2/|5-5-----|
|--------|--------|--------|--------|

SOLO              x6   
|--------|----------|----------------|
|7\------|:--------:|------7777774555|
|--00----|:--------:|----------------|
|--------|----------|----------------|

BRIDGE 2
|--------|--------|--------|--------|--------|--------|--------|--------|
|--7--77-|7--7----|--7--7--|7--7--7-|-7--7--7|--7--7--|--7--7--|-7-7----|
|--------|--------|--------|--------|--------|--------|--------|--------|
|55-55---|-55-5-55|55-55-55|-55-55--|5-55--5-|55--5-55|55-55-55|5-5-2-0-|

VERSE 3
|--------|--------|--------|--------|--------|--------|--------|--------|
|--------|--------|--------|--------|--------|--------|--------|--------|
|--------|--------|--------|--------|--------|--------|--------|-------0|
|5-555555|55555555|55555555|55554444|2-222222|2-222222|2-222222|2220202-|

|--------|-7-7----|--------|--------|--------|--------|--------|--------|
|--------|--------|---7---7|-7-7----|--------|--------|--------|--------|
|2-222-2/|5-5-5-5-|--------|--------|--------|--------|--------|--------|
|--------|-------7|5-5-5-5-|5-5-2-0-|5-555555|5-555555|5-555555|55554444|

|--------|--------|--------|--------|
|--------|--------|--------|--------|
|--------|--------|--------|--------|
|2-222222|2-222222|2-222222|2-202-20|

CHORUS 3
|--------|-7-7----|--------|-7-7-7--|--------|--------|--------|-7-7----|
|--------|--------|--------|--------|--7-7---|--7-7---|--------|--------|
|2-222-2/|5-5-5-55|2-222-2/|5-5-5-5-|--------|--------|2-222-2/|5-5-5-55|
|--------|--------|--------|-------7|5--5-55-|5--5-55-|--------|--------|

|--------|-7-7-7--|--------|--------|--------|-7-7----|--------|-7-7-7--|
|--------|--------|--7-7---|--7-7---|--------|--------|--------|--------|
|2-222-2/|5-5-5-5-|--------|--------|2-222-2/|5-5-5-55|2-222-2/|5-5-5-5-|
|--------|-------7|5--5-55-|5--5-55-|--------|--------|--------|-------7|

BRIDGE 3
|--------|--------|--------|--------|--------|--------|--------|--------|
|-77--77-|7-7-7---|--7--7--|7-----7-|--77--7-|-7--77--|--7--777|7--77777|
|--------|--------|--------|--------|--------|--------|--------|--------|
|5--55---|-5-5--55|55-55-55|-55555--|55--55--|5-55--55|55-55---|-55-----|

OUTRO
|--------|--------|--------|--------|--------|--------|--------|--------|
|4-444444|44444444|2-222222|22222222|0-000000|00000002|4-444444|44444444|
|--------|--------|--------|--------|--------|--------|--------|--------|
|--------|--------|--------|--------|--------|--------|--------|--------|

|--------|--------|--------|--------|--------|--------|--------|
|2-222222|22222222|0-000000|00000000|0-00000-|000-000-|--------|
|--------|--------|--------|--------|--------|--------|0~~~~~~~|
|--------|--------|--------|--------|--------|--------|--------|
Suggest correction
Give kudos to tab author, rate the tab!
1 2 3 4 5
comments
print report bad tab
guest
You may want to rate the tab now too:
select rating
Wanna post a correction for this tab? Suggest correction