Oops, an error
Loading. Please wait.

Need You Tonight bass

version 3
version 3

Whole song

Interactive

by INXS
1,524 views 3 this week
1 commentread comment
1 2 3 4 5
1 last vote to show rating
add to favorites
×
Save as Personal and add changes to this tab that will be seen only by you. Learn more ›
×
You can save this tab as Personal to edit and correct it or add notes. All changes will be seen only by you. Learn more »
launch autoscroll
font size
0
reset
guitar tuner
backing track
0:00
0:00
edit
Autoscroll
slow
fast
+/-
esc
set tempo
stop
Author
Unregistered
Need You Tonight
Artist: INXS
Album: Kick (1987)
Bass tab by LoudLon
loudlon@yahoo.com

Drop D Tuning DADG***

Drum intro (4 bars), then:
   
   (00:09)(x2)
G |-----------------|-----------------| 
D |-----------------|-----------------| 
A |----( rest )-----|-----------------| 
E |-----------------|-1---0--X--------|
    1 & 2 & 3 & 4 &   1 & 2 & 3 & 4 & 

    (00:17) (x5)
G |-----------------|-----------------| 
D |-----------------|-----------------| 
A |-3-----1-3-------|-----------------| 
E |-----------------|-3--3--1-3--3--1-| 
    1 & 2 & 3 & 4 &   1 & 2 & 3 & 4 &   

    (00:38) (x4)
G |-----------------|-----------------| 
D |-----------------|-----------------| 
A |-3-----1-3-------|-----------------| 
E |-----------------|-1---0--X--------|
    1 & 2 & 3 & 4 &   1 & 2 & 3 & 4 & 


   (0:56)(x8)
G |-----------------|-----------------| 
D |-----------------|-----------------| 
A |-3-----1-3-------|-----------------| 
E |-----------------|-3--3--1-3--3--1-| 
    1 & 2 & 3 & 4 &   1 & 2 & 3 & 4 & 


   (1:32)                            
G |-----------------|-----------------| 
D |-----------------|-----------------| 
A |-3-----1-3-------|-----------------|
E |-----------------|-1---0--X--------|
    1 & 2 & 3 & 4 &   1 & 2 & 3 & 4 &

   (1:36)(x3)
G |-----------------|-----------------| 
D |-----------------|-----------------| 
A |----( rest )-----|-----------------| 
E |-----------------|-1---0--X--------|
    1 & 2 & 3 & 4 &   1 & 2 & 3 & 4 & 


   (1:50)(x7)
G |-----------------|-----------------| 
D |-----------------|-----------------| 
A |-3-----1-3-------|-----------------| 
E |-----------------|-3--3--1-3--3--1-| 
    1 & 2 & 3 & 4 &   1 & 2 & 3 & 4 & 

   (2:25)        I'm lonely!      Gasp!
G |-----------------|-----------------| 
D |-----------------|-----------------| 
A |-3-----1-3-------|-----------------| 
E |-----------------|-1---------------| 
    1 & 2 & 3 & 4 &   1 & 2 & 3 & 4 & 
   
   (2:30) (x4)
G |-----------------|-----------------| 
D |-----------------|-----------------| 
A |-3-----1-3-------|-----------------| 
E |-----------------|-3--3--1-3--3--1-| 
    1 & 2 & 3 & 4 &   1 & 2 & 3 & 4 &

    (2:48)
G |-----------------| 
D |-----------------|
A |-6---5--3--------|
E |-----------------|
    1 & 2 & 3 & 4 &
   
    (2:50)
G |-----------------|-----------------|-----------------|-----------------| 
D |-----------------|-----------------|-----------------|-----------------| 
A |-3-----1-3-------|-----------------|-3-----1-3-------|----( rest )-----|
E |-----------------|-3--3--1-3--3--1-|-----------------|-----------------|
    1 & 2 & 3 & 4 &   1 & 2 & 3 & 4 &   1 & 2 & 3 & 4 &   1 & 2 & 3 & 4 &

*** I could be wrong on the Drop D but it sounds
right to me.  Feel free to correct me if I'm
wrong.  I won't mind. :)

            
            
Suggest correction
Creating personal tab
Creating personal tab
You can edit any tab online and save it as your Personal.

You can edit, replace or remove any tab part or add personal notes – all changes will be seen only by you.

Personal tabs can be accessed anytime from any device, even offline.
Learn more »
Give kudos to tab author, rate the tab!
1 2 3 4 5
comments
print report bad tab
1 comment total.
0 reply
jack77 41 Jan 20, 2017 02:39 PM

didn't like this contribution

guest
Wanna post a correction for this tab? Suggest correction