Oops, an error
Loading. Please wait.

Never Tear Us Apart Tab

version 1
version 1

Whole song

Interactive

by INXS
25,523 views 57 this week
1 commentread comment
1 2 3 4 5
x 11
add to favorites
launch autoscroll
font size
0
reset
how to read this tab
guitar tuner
Autoscroll
slow
fast
+/-
esc
set tempo
stop
Help us to improve Ultimate-Guitar.com Take our survey!
×
Author
Difficulty
intermediate
Tintinvox:
Hi there, I´ve seen some tabs of this song, they were good but they can be better so i 
try to upgrade the tabs.... any issues email me at tintinvox@gmail.com

INXS - Never Tear Us apart
Standard Tunning (e-B-G-D-A-E)
C or Am Scale (C-D-E-F-G-H-A-B)
The song has a "main part" and "sax solo", i will tab it for guitar and also add "my 
to the song which is easy because it is on C major. In case you Want to improvise here is 
scale.

e-0-1-x-3-x-5-x-7-8-x-10-x-12-13-x-15-x-17-18-x-20-x-22-x-24-|
B-0-1-x-3-x-5-6-x-8-x-10-x-12-13-x-15-x-17-18-x-20-x-22-x-24-|
G-0-x-2-x-4-5-x-7-x-9-10-x-12-x-14-x-16-17-x-19-x-21-22-x-24-|
D-0-x-2-3-x-5-x-7-x-9-10-x-12-x-14-15-x-17-x-19-x-21-22-x-24-|
A-0-x-2-3-x-5-x-7-8-x-10-x-12-x-14-15-x-17-x-19-20-x-22-x-24-|
E-0-1-x-3-x-5-x-7-8-x-10-x-12-13-x-15-x-17-x-19-20-x-22-x-24-|

Ok enough of theory, serious business now!!!

Intro: The intro are actually strings, I will "adapt" them to guitar.

Intro: (Am-F-Dm-F)
   C/A             C/F              Dm               F
e-3333333333333333|3333333333333333|5555555555555555|5555555555555555|
B-5555555555555555|5555555555555555|6666666666666666|6666666666666666|
G-5555555555555555|5555555555555555|7777777777777777|5555555555555555|
D-----------------|----------------|----------------|----------------|
A-----------------|----------------|5---------------|----------------|
E-5--------------3|1---------------|---------------3|1---------------|

Instead of that i recomend to play this... (sounds better)
  Am               F                Dm               F
e-000000000000000-|111111111111111-|111111111111111-|111111111111111-|
B-111111111111111-|111111111111111-|333333333333333-|111111111111111-|
G-222222222222222-|222222222222222-|222222222222222-|222222222222222-|
D-222222222222222-|333333333333333-|000000000000000-|333333333333333-|
A-000000000000000-|333333333333333-|----------------|333333333333333-|
E----------------3|1111111111111110|---------------3|1111111111111113|
(THE LAST NOTE OF THE BAR "KIND OF A BRIDGE" BETWEEN BARS)

VERSE I:

  Don´t ask me     What you know... don´t have to .. I love your pre..
  C/A             C/F              Dm               F
e-3333333333333333|3333333333333333|5555555555555555|5555555555555555|
B-5555555555555555|5555555555555555|6666666666666666|6666666666666666|
G-5555555555555555|5555555555555555|7777777777777777|5555555555555555|
D-----------------|----------------|----------------|----------------|
A-----------------|----------------|5---------------|----------------|
E-5--------------3|1---------------|---------------3|1---------------|

C---------------------------------------------------------------|HORUS:
 (C-F-C-F-C-F-C-F-F-G-X)
Note: on every C a clean guitars Strums the std C (0-1-0-2-3-x--|
 I                           I was staning                      you
  C                F                C                F
e-3333333333333333|5555555555555555|3333333333333333|5555555555555555|
B-5555555555555555|6666666666666666|5555555555555555|6666666666666666|
G-5555555555555555|5555555555555555|5555555555555555|5555555555555555|
D-----------------|----------------|----------------|----------------|
A-3------------357|8------------753|3------------357|8------------753|
E-----------------|----------------|----------------|----------------|

were there                     two worlds collide
  C                F                C                F
e-3333333333333333|5555555555555555|3333333333333333|5555555555555555|
B-5555555555555555|6666666666666666|5555555555555555|6666666666666666|
G-5555555555555555|5555555555555555|5555555555555555|5555555555555555|
D-----------------|----------------|----------------|----------------|
A-3------------357|8------------753|3------------357|8------------753|
E-----------------|----------------|----------------|----------------|

  and they can never tear us apart
  F                G
e-5555555555555555|7777777777777777| x
B-6666666666666666|8888888888888888| x Here goes the silent part (2 sec+-)
G-5555555555555555|7777777777777777| x
D-----------------|------------------| x
A-8--------------8|10----------------| x
E-----------------|------------------| x

Again my recomendation whit guitar is to play this part like this:
  I                           I was
  C            (Em)F           (Em)
e-0--0--0--0--0---|1--1--1--1--1---|
B-1--1--1--1--1---|1--1--1--1--1---|
G-0--0--0--0--0---|2--2--2--2--2---|
D-22222222222222-2|3333333333333332|
A-3333333333333332|3333333333333332|
E----------------0|1111111111111110|

standing                     you were
  C            (Em)F           (Em)
e-0--0--0--0--0---|1--1--1--1--1---|
B-1--1--1--1--1---|1--1--1--1--1---|
G-0--0--0--0--0---|2--2--2--2--2---|
D-22222222222222-2|3333333333333332|
A-3333333333333332|3333333333333332|
E----------------0|1111111111111110|

there                       two worlds
  C            (Em)F           (Em)
e-0--0--0--0--0---|1--1--1--1--1---|
B-1--1--1--1--1---|1--1--1--1--1---|
G-0--0--0--0--0---|2--2--2--2--2---|
D-22222222222222-2|3333333333333332|
A-3333333333333332|3333333333333332|
E----------------0|1111111111111110|

collide
  C            (Em)F           Don´t do the arrange here
e-0--0--0--0--0---|1--1--1--1--1---|
B-1--1--1--1--1---|1--1--1--1--1---|
G-0--0--0--0--0---|2--2--2--2--2---|
D-22222222222222-2|3333333333333333|
A-3333333333333332|3333333333333333|
E----------------0|1111111111111111|

and they can never tear us apart
e-1---------------|------------------| x
B-1---------------|------------------| x
G-2---------------|------------------| x
D-3333333333333333|5555555555555555| x
A-3333333333333333|5555555555555555| x
E-1111111111111111|3333333333333333| x

Electric guitars enters:

e-----------------|----------------|
B-----------------|----------------|
G-----------------|----------------|
D-----------------|----------------|
A-0-3-5-0-DRUMS---|-0-3-5-0-DRUMS--|
E-----------------|----------------|

If playing alone with one guitar i would do this. (some disto maybe)

e-----------------|----------------|
B-----------------|----------------|
G-----------------|----------------|
D---5-7-----------|---5-7----------|
A-7-3-5-7777777777|-7-3-5-777777777|
E-5-----5555555555|-5-----555555555|

VERSE II: (AS THE FIRST ONE: :Am-F-Dm-F:Am-F-Dm-F:)
I will translate with my version for the original do as same as the first one)

 We can live       for 1000 years   if i hurt you   i make wine from..
  Am               F                Dm               F
e-000000000000000-|111111111111111-|111111111111111-|111111111111111-|
B-111111111111111-|111111111111111-|333333333333333-|111111111111111-|
G-222222222222222-|222222222222222-|222222222222222-|222222222222222-|
D-222222222222222-|333333333333333-|000000000000000-|333333333333333-|
A-000000000000000-|333333333333333-|----------------|333333333333333-|
E----------------3|1111111111111110|---------------3|1111111111111113|
(THE LAST NOTE OF THE BAR "KIND OF A BRIDGE" BETWEEN BARS)

Verse III:

  I told you       that we could.. cause we all have.. but some of us...
  Am               F                Dm               F
e-000000000000000-|111111111111111-|111111111111111-|111111111111111-|
B-111111111111111-|111111111111111-|333333333333333-|111111111111111-|
G-222222222222222-|222222222222222-|222222222222222-|222222222222222-|
D-222222222222222-|333333333333333-|000000000000000-|333333333333333-|
A-000000000000000-|333333333333333-|----------------|333333333333333-|
E----------------3|1111111111111110|---------------3|1111111111111113|
(THE LAST NOTE OF THE BAR "KIND OF A BRIDGE" BETWEEN BARS)

Chorus II:

  I                           I was
  C            (Em)F           (Em)
e-0--0--0--0--0---|1--1--1--1--1---|
B-1--1--1--1--1---|1--1--1--1--1---|
G-0--0--0--0--0---|2--2--2--2--2---|
D-22222222222222-2|3333333333333332|
A-3333333333333332|3333333333333332|
E----------------0|1111111111111110|

standing                     you were
  C            (Em)F           (Em)
e-0--0--0--0--0---|1--1--1--1--1---|
B-1--1--1--1--1---|1--1--1--1--1---|
G-0--0--0--0--0---|2--2--2--2--2---|
D-22222222222222-2|3333333333333332|
A-3333333333333332|3333333333333332|
E----------------0|1111111111111110|

there                       two worlds
  C            (Em)F           (Em)
e-0--0--0--0--0---|1--1--1--1--1---|
B-1--1--1--1--1---|1--1--1--1--1---|
G-0--0--0--0--0---|2--2--2--2--2---|
D-22222222222222-2|3333333333333332|
A-3333333333333332|3333333333333332|
E----------------0|1111111111111110|

collide
  C            (Em)F           Don´t do the arrange here
e-0--0--0--0--0---|1--1--1--1--1---|
B-1--1--1--1--1---|1--1--1--1--1---|
G-0--0--0--0--0---|2--2--2--2--2---|
D-22222222222222-2|3333333333333333|
A-3333333333333332|3333333333333333|
E----------------0|1111111111111111|

and they can never ever tear us apart
e-1---------------|------------------| x
B-1---------------|------------------| x
G-2---------------|------------------| x
D-3333333333333333|5555555555555555| x
A-3333333333333333|5555555555555555| x
E-1111111111111111|3333333333333333| x

2nd Bridge (electric guitar)
                    this time
e-----------------|----------------|
B-----------------|----------------|
G-----------------|----------------|
D---5-7-----------|---5-7**********|**means to let ring!!!!
A-7-3-5-7777777777|-7-3-5**********|
E-5-----5555555555|-5--------------|

SAX SOLO FOR GUITAR: (base same as verses :Am-F-Dm-F)

All in the low E string (the first one)

e-15vvvvvv13/12/11/10vvvvv8-10-5|
B-------------------------------|
G-------------------------------|
D-------------------------------|
A-------------------------------|
E-------------------------------|

e-15vvvvvv12-10-12-12vvvv-10-8-10vvv/12vvv/13vvv/15b(bend one tone)|
B------------------------------------------------------------------|
G------------------------------------------------------------------|
D------------------------------------------------------------------|
A------------------------------------------------------------------|
E------------------------------------------------------------------|

If playing alone you should do something like this:

Do this with some good distortion or overdriven
                    this time
e-----------------|----------------|
B-----------------|----------------|
G-----------------|----------------|
D---5-7-----------|---5-7**********|**means to let ring!!!!
A-7-3-5-7777777777|-7-3-5**********|
E-5-----5555555555|-5--------------|

And after the D5 strums improvise on C or Am... (the scale is above)
I´ll leave my example of the solo

e-------13h15-15b|15/17-13-15vv-15-13----|-----------------------------|
B----13h15-------|------------------15-13|--13-15-15br-15p13-----------|
G-12h14----------|-----------------------|14----------------14-12-<12>-|
D----------------|-----------------------|-----------------------------|
A----------------|-----------------------|-----------------------------|
E----------------|-----------------------|-----------------------------|

e-13-15-13-12--------12|1013(17)x3-1215(19)x3-1317(20)x3-1519(22)x3--|
B-----------(15-13-15)-|--------------------------------this is hard!|
G-------------(FAST)---|MAYBE SOME QUICK TAPPING---------------------|
D----------------------|(means to press with your right index finger-|
A----------------------|while "thrilling" with the left hand)--------|
E----------------------|------------------------------------------12\|

The tapping would be at the end of the solo when the strings start "going down" the fret 
do something like
e-1010101010-121212121212-131313131313-1515151515---5-7-8-0-1-3--------
Feel me??????

Outro:

  I                           I was
  C            (Em)F           (Em)
e-0--0--0--0--0---|1--1--1--1--1---|
B-1--1--1--1--1---|1--1--1--1--1---|
G-0--0--0--0--0---|2--2--2--2--2---|
D-22222222222222-2|3333333333333332|
A-3333333333333332|3333333333333332|
E----------------0|1111111111111110|

standing                     you were
  C            (Em)F           (Em)
e-0--0--0--0--0---|1--1--1--1--1---|
B-1--1--1--1--1---|1--1--1--1--1---|
G-0--0--0--0--0---|2--2--2--2--2---|
D-22222222222222-2|3333333333333332|
A-3333333333333332|3333333333333332|
E----------------0|1111111111111110|

there                       two worlds
  C            (Em)F           (Em)
e-0--0--0--0--0---|1--1--1--1--1---|
B-1--1--1--1--1---|1--1--1--1--1---|
G-0--0--0--0--0---|2--2--2--2--2---|
D-22222222222222-2|3333333333333332|
A-3333333333333332|3333333333333332|
E----------------0|1111111111111110|

collide
  C            (Em)F           Don´t do the arrange here
e-0--0--0--0--0---|1--1--1--1--1---|
B-1--1--1--1--1---|1--1--1--1--1---|
G-0--0--0--0--0---|2--2--2--2--2---|
D-22222222222222-2|3333333333333333|
A-3333333333333332|3333333333333333|
E----------------0|1111111111111111|

and they can never ever tear us apart
e-1---------------|----------------|-----------------|
B-1---------------|----------------|0-1-3-----1------|
G-2---------------|----------------|--------2--------|
D-3333333333333333|5555555555555555|------3----------|
A-3333333333333333|5555555555555555|Try this arrange-|
E-1111111111111111|3333333333333333|-----------------|

Repeat until end.
Rate with 5 please jejeje
Like it??? Rate my solo please! jjeje
byebye
Suggest correction
comments
print report bad tab
1 comment total.
0 reply
just_henry 50 Jul 21, 2016 09:49 PM

Wow, great job. Severley underrated tab right here.

guest
You may want to rate the tab now too:
select rating
Wanna post a correction for this tab? Suggest correction