Oops, an error
Loading. Please wait.

Never Tear Us Apart chords

version 2
version 2

Whole song

Interactive

by INXS
73,246 views 81 this week
1 commentread comment
1 2 3 4 5
x 47
add to favorites
×
Save as Personal and add changes to this tab that will be seen only by you. Learn more ›
×
You can save this tab as Personal to edit and correct it or add notes. All changes will be seen only by you. Learn more »
launch autoscroll
font size
0
reset
transpose
0
reset
display chords
guitar tuner
edit
Autoscroll
slow
fast
+/-
esc
set tempo
stop
Author
Difficulty
Strumming
There is no strumming pattern for this song yet. and get +5 IQ
INXS - "Never Tear Us Apart"

====================================================================
This is my very first tab.. I’m from Argentina and I started playing
electric guitar two months ago.. I hope that it’s OK.. I can’t
promise anything :D.. Feel free to send me an e-mail with suggestions
or corrections about this tab...
====================================================================

Standard Tuning (eBGDAE)


         Barred Chords                  Simple Chords
-------------------------------   -------------------------
   F     Am    Dm    C     G         Am    Dm    C     G
-------------------------------   -------------------------
|--1--|--5--|--5--|--3--|--3--|   |--0--|--1--|--0--|--3--|
|--1--|--5--|--6--|--5--|--3--|   |--1--|--3--|--1--|--0--|
|--2--|--5--|--7--|--5--|--4--|   |--2--|--2--|--0--|--0--|
|--3--|--7--|--7--|--5--|--5--|   |--2--|--0--|--2--|--0--|
|--3--|--7--|--5--|--3--|--5--|   |--0--|--0--|--3--|--2--|
|--1--|--5--|--5--|--3--|--3--|   |--0--|--0--|--0--|--3--|
-------------------------------   -------------------------

[Intro]

Am F Dm F


[Verse]

      Am               F
Don't ask me, what you know is true
              Dm          F
Don't have to tell you, I love your precious heart


[Chorus]

C   F
I
      C        F
I was standing
         C        F
You were there
           C        F
Two worlds collided
               G
And they could never tear us apart


Break:  

e|-------------------------------x--|
B|-------------------------------2--| Muted A Chord
G|-------------------------------2--| [x 0 2 2 x x]
D|-------------------------------0--|
A|-0--3--5--0~~~--0--3--5--0~~~--x--| 
E|-------------------------------x--|


[Verse]

         Am         F
We could live for a thousand years
         Dm                 F
But if I hurt you, I'd make wine from your tears
  Am              F
I told you that we could fly
         Dm                 F
Cause we all have wings but some of us don't know why


[Chorus]

C   F
I
      C        F
I was standing
         C       F
You were there
           C        F
Two worlds collided
               G
And they could never, ever, tear us apart

Break:

e|-------------------------------------|
B|-------------------------------------|
G|-------------------------------2---2-|
D|----------------0--3--5----------2---|
A|-0--3--5--0~~~-----------0~~~--------| 
E|-------------------------------------|

Sax solo:

e|-12~~~-12-11-10-8------------------------|
B|------------------10-8-10~---------------|
G|-----------------------------------------|
D|-----------------------------------------|
A|-----------------------------------------|
E|-----------------------------------------|

e|-15~~-12----12-12~--10-8--10-12-13-15~~~-|
B|---------15------------------------------|
G|-----------------------------------------|
D|-----------------------------------------|
A|-----------------------------------------|
E|-----------------------------------------|


Chorus (x2):

C         F
I (Don't ask me)
      C                        F
I was standing (You know it's true)
         C                 F
You were there (Worlds collided)
             C                F
Two worlds collided (Shining through)
               G
And they could never tear us apart


Ramiro Alfano
E-mail: jdfortune36@yahoo.com.ar



************************************

| x  Dead note
| ~  Vibrato   

************************************

            
            
Suggest correction
Creating personal tab
Creating personal tab
You can edit any tab online and save it as your Personal.

You can edit, replace or remove any tab part or add personal notes – all changes will be seen only by you.

Personal tabs can be accessed anytime from any device, even offline.
Learn more »
comments
print report bad tab
1 comment total.
0 reply
symon.bassi 31 Feb 10, 2014 08:56 PM

good tab...

guest
You may want to rate the tab now too:
select rating
Wanna post a correction for this tab? Suggest correction