Oops, an error
Loading. Please wait.

This Time Chords

by INXS
52 views 1 this week
no commentswrite comment
1 2 3 4 5
2 more votes to show rating
add to favorites
launch autoscroll
font size
0
reset
transpose
0
reset
simplify chords
display chords
guitar tuner
Autoscroll
slow
fast
+/-
esc
set tempo
stop
Help us to improve Ultimate-Guitar.com Take our survey!
×
Author
Difficulty
novice
This Time - INXS

From the Album “Listen Like Thieves” - 1985


[INTRO]
   G                  G             G               G
e|------3-----3-----|-3-------3---|-3------3------|-3------3--|
B|--------3-----3---|---3---------|---3------3----|---3-------|
G|----------0-----0-|-----0-------|-----0------0--|-----0-----|
D|------------------|-------------|---------------|-----------|
A|------------------|-------------|---------------|-----------|
E|--3---------------|-------------|---------------|-----------|


[VERSE 1] 
D
I will believe you
D
If you say it's true
D
Girl you know I need you more than any word spoken


[VERSE 2] 
D
I've seen you before
D
Turn and walk away
D
You say you won't come back it's just a game anyway


[CHORUS]
Em             A  Asus4  A
We are hoping
Em                     A  Asus4  A
Yes and we're praying
Bm        D
This time
D           Bm        D
Will be the last time
     C                       G
That we will fight like this
Bm        D
This time 
D           Bm        D
Will be the last time
     C                       G
That we will fight like this
 

[Solo]
    D          D         D         D         D       D            D          D
E|-----------|---------|---------|---------|-------|------------|----------|------|
B|-----------|---------|---------|---------|-----3-|------------|----------|------|
G|---4-4-2-0-|-2-------|-4-4-2-0-|-2-----4-|-4-4---|-2--2-0-----|----------|------|
D|-----------|-------0-|---------|---------|-------|----------4-|--2--0----|------|
A|-----------|---------|---------|---------|-------|------------|----------|------|
E|-----------|---------|---------|---------|-------|------------|----------|------|

   Em      G             D           D      
E|-------|-------------|-----------|---------|
B|-------|--------—----|-----------|---------|
G|-------|-0—-0—-0--0--|-2---4-2—0-|-2-------|
D|--2----|--4--4--4----|-----------|---------|
A|-------|-------------|-----------|---------|
E|-------|-------------|-----------|---------|


[VERSE 3] 
D
We are always wanting
D
The things we cannot find
D
You know that we are always wasting time


[CHORUS]
Em             A  Asus4  A
We are hoping
Em                     A  Asus4  A
Yes and we're praying
Bm        D
This time
D           Bm        D
Will be the last time
     C                       G
That we will fight like this
Bm        D
This time 
D           Bm        D
Will be the last time
     C                       G
That we will fight like this

 
[VERSE 4] 
D
You know I can forget
G                D
We have fought before
G                                 D
I've seen inside your heart and I know it is breaking


[CHORUS]
Em             A  Asus4  A
We are hoping
Em                     A  Asus4  A
Yes and we're praying
Bm        D
This time
D           Bm        D
Will be the last time
     C                       G
That we will fight like this
Bm        D
This time 
D           Bm        D
Will be the last time
     C                       G
That we will fight like this


[OUTRO]
A
This time
            G           D
Will be the last time

Suggest correction
Give kudos to tab author, rate the tab!
1 2 3 4 5
comments
print report bad tab
guest
You may want to rate the tab now too:
select rating
Wanna post a correction for this tab? Suggest correction