Oops, an error
Loading. Please wait.

7 Vidas chords

47 views 1 this week
no commentswrite comment
1 2 3 4 5
3 more votes to show rating
add to favorites
×
Save as Personal and add changes to this tab that will be seen only by you. Learn more ›
×
You can save this tab as Personal to edit and correct it or add notes. All changes will be seen only by you. Learn more »
launch autoscroll
font size
0
reset
transpose
0
reset
simplify chords
display chords
guitar tuner
edit
Autoscroll
slow
fast
+/-
esc
set tempo
stop
Strumming
There is no strumming pattern for this song yet. and get +5 IQ
AKI ESTA 7 VIDAS ESTA SUPER CANCION DE LOS INYECTORES 
SOLO LES MANDO UNA PARTE DEL INTRO

1|---------------------------------------------------------------------------------------------------------------|
2|---------------------------------------------------------------------------------------------------------------|
3|-------9---9------9---9--------6---6--------6----6---------6---6-------9---9-----------------------------------|
4|---77----7---7--66---6---6--44----4---4----------------44----4---6--77---7---7-------9---9--9---9---9----9-----|
5|-----------------------------------------44---4---4------------------------------77----7--7---7---7---7--7-----|
6|---------------------------------------------------------------------------------------------------------------|

     A5               C#5
VI CRECER MIL VECES IDEAS ACA
F#5          C#5            F#5          A5         E5
VI SEMBRAR SONRISAS EN ALGUN LUGAR DE ESTA CIUDAD Y TODO YA NO ESTA
      A5               C#5
VI CAER UN MUNDO A MI ALREDEDOR
F#5          C#5            F#5          A5         E5
VI VOLAR AMIGOS HACIA ALGUN LUGAR DEL MAS ALLA ESPERANDOME EN PAZ
      A5               C#5
CUANDO LA ILUSION ES SOLO DESEPCION
F#5          C#5            F#5          A5         E5            E5
CUANDO LOS ESFUERZOS SE AHOGARON EN ESTE DESIRTO DONDE NADA DURO YO GRITE

 D5         A5
NO QUIERO SOBREVIVIR 
B5                  F#5       D5      A5        E5
   MIENTRAS TRATAN DE EXISTIR    YO PREFERIRIA VIVIR 
D5         A5
UNA VIDA CON SENTIDO
B5                  F#5       D5      A5        E5
      MIENTRAS ESTAN DORMIDOS YO QUIERO VIVIR

       A5              
CRECIO LA IGNORANCIA
        C#5
EL ODIO NOS CORRUMPIO 
F#5         C#5          F#5         A5
LA CODICIA HIZO PEDAZOS EL HONOR DE ESTE PUEBLO
E5          
¿Y QUE HAY DEL FUTURO? 
     A5                    C#5
TU PRIVACIDAD ESTA EN UN TELEVISOR 
F#5              C#5        F#5        A5         E5
TUS PALABRAS ESPIADAS POR EL OJO INQUISIDOR SE VENDEN A UN POSTOR
      A5               C#5
CUANDO LA ESPERANZA ES AHORA TRAICION 
F#5          C#5            F#5          A5         E5            E5
CUANDO TUS SENTIDOS SE AHOGARON EN ESTE DESIERTO DONDE NADA BRILLO YO PENSE 

 D5         A5
NO QUIERO SOBREVIVIR 
B5                  F#5       D5      A5        E5
      MIENTRAS TRATAN DE EXISTIR YO PREFERIRIA VIVIR 
 D5         A5
UNA VIDA CON SENTIDO
B5                  F#5       D5      A5        E5
      MIENTRAS ESTAN DORMIDOS YO QUIERO VIVIR


1|-----------------------------------------------------------------------------------------------------------------|
2|-----------------------------------------------------------------------------------------------------------------|
3|-------9---9------9---9--------6---6--------6----6---------6---6-------9---9-------------------------------------|
4|---77----7---7--66---6---6--44----4---4----------------44----4---6--77---7---7-------9---9--9---9---9----9-9-9---|
5|-----------------------------------------44---4---4------------------------------77----7--7---7---7---7--7-7-7---|
6|-----------------------------------------------------------------------------------------------------------------|

 D5          A5
B5                  F#5       D5      A5        E5
 D5         A5
B5                  F#5       D5      A5        E5

     A5               C#5
VI CRECER MIL VECES IDEAS ACA
F#5          C#5            F#5          A5         E5
VI SEMBRAR SONRISAS EN ALGUN LUGAR DE ESTA CIUDAD Y TODO YA NO ESTA
      A5               C#5
CUANDO LA ILUSION ES SOLO DESEPCION
F#5          C#5            F#5          A5         E5            E5
CUANDO LOS ESFUERZOS SE AHOGARON EN ESTE DESIRTO DONDE NADA DURO YO GRITE

 D5         A5
NO QUIERO SOBREVIVIR 
B5                  F#5       D5      A5        E5
      MIENTRAS TRATAN DE EXISTIR YO PREFERIRIA VIVIR 
 D5         A5
UNA VIDA CON SENTIDO
B5                  F#5       D5      A5        E5
      MIENTRAS ESTAN DORMIDOS YO QUIERO VIVIR               TERMINA EN A5


SALUDOS PA LA GENTE DE INYECTORES Y PA TODOS LOS KE ESTAN EN LA MOVIDA 
SALUDOS PA MIS PATAS  BRYAN  MIMI Y EL PATO YA SALE COLISION EN 
CAJAMARCA PA ROMPER CRANEOS CUALKIER COSA O ERROR AUNKE CREO KE NO HAY 
POR QUE ESTA CORRECTISIMA LA CANCION ESCRIBIR A MI MAIL
SI LES GUSTA G-3 Y QUIEREN LAS TABLADURAS MANDEN UN MAIL PE ARRIBA ESTA 
MI DIRRECCION Y SI KIEREN LOS SOLOS DE LAS CANCIONES DEL ROMPECAMINOS
SOLO ESCRIBANME !MUERTE A LOS POSER@S!

            
            
Suggest correction
Creating personal tab
Creating personal tab
You can edit any tab online and save it as your Personal.

You can edit, replace or remove any tab part or add personal notes – all changes will be seen only by you.

Personal tabs can be accessed anytime from any device, even offline.
Learn more »
Give kudos to tab author, rate the tab!
1 2 3 4 5
comments
print report bad tab
guest
Wanna post a correction for this tab? Suggest correction