Oops, an error
Loading. Please wait.

7 Vidas tab

version 1
version 1

Whole song

58 views 3 this week
no commentswrite comment
1 2 3 4 5
3 more votes to show rating
add to favorites
×
Save as Personal and add changes to this tab that will be seen only by you. Learn more ›
×
You can save this tab as Personal to edit and correct it or add notes. All changes will be seen only by you. Learn more »
launch autoscroll
font size
0
reset
how to read this tab
guitar tuner
edit
Autoscroll
slow
fast
+/-
esc
set tempo
stop
7 VIDAS
hace un kulo ke no publiko ni mierda pex, solo eh estado sakando komo un webon
pero ya pex, fuera de webadas ai sta '7 vidas'......
oe si tokas full g3,inyectores, mandame un mail pex, 
solo bajo o teba............ 

INTRO(es guitarra pe webonazos!!!!)
|---------------------------------------|
|---------------------------------------|
|---------------------------------------|
|------9-----9----------14-14-------14--|
|--7-7---7-7---7------------------------|
|-----------------12-12-------12-12-----|

|-------------------------------------------------------------------|
|-------------------------------------------------------------------|
|-------------------------------------------------------------------|
|--------14----14--------14----14------11---11------11---11---------|
|--12-12----12-----11-11----11-----9-9----9-------------------------|
|-----------------------------------------------9-9----9------------|

|------------------------------------------------|
|------------------------------------------------|
|------------------------------------------------|
|------11---11--------14----14--9-9-9---9---9----|
|--9-9----9-----12-12----12-----7-7---7---7---7--|
|------------------------------------------------|


VERSOS
|-----------------------|
|-----------------------|
|-----------------------|
|-----------6--------9--|
|--7--7--4--4--4--7--7--|
|--5--4--2-----2--5-----|x3


KORO
|-------------------------------------|
|-------------------------------------|
|-----------------------9-11-9/11/13--|
|--7-----9-----7-----9--x-x--x/-x/xx--|
|--5--7--7--4--5--7--7--7-9--7/-9/11--|
|-----5-----2-----5-------------------|x1

|----------------------------------|
|----------------------------------|
|-----------------------9/11-9/11--|
|--7-----9-----7-----9--x/x--x/x---|
|--5--7--7--4--5--7--7--7/9--7/9---|
|-----5-----2-----5----------------|x1


SOLO (ta facil meya, solo son oktavas!!!!)
|---------------------------------------------|
|---------------------------------------------|
|--7-9-11-9--9/11/9--9/11-11-11-11/6-6-6-6-6--|
|--x-x-x--x--x--x-x--x--x--x--x--x-x-x-x-x-x--|
|--5-7-9--7--7/-9/7--7/-9--9--9--9/4-4-4-4-4--|
|---------------------------------------------|

|------------------------------------------------|
|------------------------------------------------|
|--7-9-11-9--9/11/9-9-9--9/11-11-11-11/13-13-13--|
|--x-x-x--x--x--x-x-x-x--x/-x--x--x--x/xx-xx-xx--|
|--5-7-9--7--7/-9/7-7-7--7/-9--9--9--9/11-11-11--|
|------------------------------------------------|

|---------------------------------------------|
|---------------------------------------------|
|--7-9-11-9--9/11/9--9/11-11-11-11/6-6-6-6-6--|
|--x-x-x--x--x--x-x--x--x--x--x--x-x-x-x-x-x--|
|--5-7-9--7--7/-9/7--7/-9--9--9--9/4-4-4-4-4--|
|---------------------------------------------|

|---------------------------------|
|---------------------------------|
|--7-9-11-9--9/11/9--9-9-9-9-9-9--|
|--x-x-x--x--x--x-x--x-x-x-x-x-x--|
|--5-7-9--7--7/-9/7--7-7-7-7-7-7--|
|---------------------------------|

despues del solo kreo ke se repite el verso, nada max pex ai kaba la wada

putamare pa los webones ke kieran sakar la wada del intro
en guitarra, pero el la C#5 gabriel lo hace una oktava menor
en guitarr faltarian kuerdas pex, por eso lo hice una oktava mayor, 
osea komo los versos........


|---------------------------------------------------|
|---------------------------------------------------|
|---------------------------------------------------|
|---------------------------------------------------|
|----7---7---7---7---7---7---7---7---4---4---4---4--|
|--5---5---5---5---4---4---4---4---2---2---2---2----|

|--------------------------------------------------------|
|--------------------------------------------------------|
|--------------------------------------------------------|
|----6---6---6---6---------------------------------------|
|--4---4---4---4-----4---4---4---4---7---7---7---7--7----|
|------------------2---2---2---2---5---5---5---5------0--|
						   ----
						   estos dos ultimos se repiten
						   8 veces c/u, osea primero 8 veces el 7 
						   y despues 8 veces el 0
						   (digo komo ai gente medio bestia, no marcial?)

PD: ya kreon ke me ganaron publikando esta kancion pex
    pero e xuxa, ai sta, xk el otro tab esta kagado en los versos
    saludos pa todos los ke me konoskan!!!!!!!

            
            
Suggest correction
Creating personal tab
Creating personal tab
You can edit any tab online and save it as your Personal.

You can edit, replace or remove any tab part or add personal notes – all changes will be seen only by you.

Personal tabs can be accessed anytime from any device, even offline.
Learn more »
Give kudos to tab author, rate the tab!
1 2 3 4 5
comments
print report bad tab
guest
Wanna post a correction for this tab? Suggest correction