Oops, an error
Loading. Please wait.

7 Vidas tab

version 2
version 2

Whole song

9 views 1 this week
no commentswrite comment
1 2 3 4 5
3 more votes to show rating
add to favorites
×
Save as Personal and add changes to this tab that will be seen only by you. Learn more ›
×
You can save this tab as Personal to edit and correct it or add notes. All changes will be seen only by you. Learn more »
launch autoscroll
font size
0
reset
how to read this tab
guitar tuner
edit
Autoscroll
slow
fast
+/-
esc
set tempo
stop
Esta es una de las mejores kanciones de Inyectores... se llama 7 vidas.. aki el tab...


Intro (guitarra clean)

|-----------------|-----------------|-----------------|-----------------|
|-----------------|-----------------|-----------------|-----------------|
|-----------------|-----------------|-----------------|-----------------|
|-----------------|-----------------|-----------------|-----------------|
|---7---7---7---7-|---7---7---7---7\|---4---4---4---4-|---4---4---4---4-|
|-5---5---5---5---|-4---4---4---4--\|-2---2---2---2---|-0---0---0---0---|

|-----------------|-----------------|-----------------|-----------------|
|-----------------|-----------------|-----------------|-----------------|
|-----------------|-----------------|-----------------|-----9-------9---|
|-----------------|-----------------|-----9---9---9---|-----------------|
|---4---4---4---4/|---7---7---7---7-|-7-7-------7---7-|-7-7---7-7-7-----|
|-2---2---2---2--/|-5---5---5---5---|-----------------|-----------------|

|-----------------|-----------------|-----------------|-----------------|
|-----------------|-----------------|-----------------|-----------------|
|-----9-------9---|-----9-------9--\|-----6-------6---|-----6-------6---|
|-7-------7-----7-|-6-------6-----6\|-4-------4-----4-|-----------------|
|-----------------|-----------------|-----------------|-4-------4-----4-|
|-----------------|-----------------|-----------------|-----------------|

|-----------------|-----------------|-----------------|-----------------|
|-----------------|-----------------|-----------------|-----------------|
|-----6-------6--/|-----9-------9---|-----9-------9---|-9-9-9-9-9-------|
|-4-------4-----4/|-7-------7-----7-|-9-9-9-9-9-9-9-9-|-9-9-9-9-9-------|
|-----------------|-----------------|-7-7-7-7-7-7-7-7-|-7-7-7-7-7-------|
|-----------------|-----------------|-----------------|-----------------|


Verso

       A5            E(no5)   F#5           C#5
Vi krecer mil veces ideas aka vi sembrar sonrisas en
  F#5            A5          E5
algun lugar de esta ciudad y todo ya no esta
     A5            E(no5)       F#5       C#5
Vi kaer un mundo a mi alrededor vi volar amigos hacia
  F#5           A5         E5*
algun lugar del mas alla esperandome en paz
       A5                E(no5)      F#5          C#5
Cuando la ilusion es solo decepcion cuando los esfuerzos
         F#5        A5          E5*
se ahogaron en este desierto donde nada duro ¡yo grite!


Coro

D5             A5        E5*                   F#5
   No kiero sobrevivir       mientras trantan de existir
D5       A5        E5*     F#5* G#5*
   yo preferiria vivir
D5           A5          E5*            F#5
   Una vida kon sentido      mientras estan dormidos
   D5    A5    E5*(X)
   yo kiero vivir


Verso

       A5                   E(no5)         F#5          C#5
Krecio la ignorancia el odio nos korrompio la kodicia hizo
        F#5           A5            E5*
pedazos el honor de este pueblo ¿y ke hay del futuro?
      A5                E(no5)     F#5          G#5
Tu privacidad esta en un televisor tus palabras espiadas
F#5          A5         E5*
por el ojo inkisidor se venden a un postor
       A5                   E(no5)     F#5          C#5
Cuando la esperanza es ahora traicion cuando tus sentidos
         F#5        A5          E5*
se ahogaron en este desierto donde nada brillo ¡yo pense!


Coro

D5             A5        E5*                   F#5
   No kiero sobrevivir       mientras trantan de existir
D5       A5        E5*     F#5* G#5*
   yo preferiria vivir
D5           A5          E5*            F#5
   Una vida kon sentido      mientras estan dormidos
   D5    A5    E5*(X)
   yo kiero vivir


Interludio

|-----------------|-----------------|-----------------|-----------------|
|-----------------|-----------------|-----------------|-----------------|
|-----9-------9---|-----9-------9--\|-----6-------6---|-----6-------6---|
|-7-------7-----7-|-6-------6-----6\|-4-------4-----4-|-----------------|
|-----------------|-----------------|-----------------|-4-------4-----4-|
|-----------------|-----------------|-----------------|-----------------|
                                     /-------------dist-----------------\
|-----------------|-----------------|-----------------|-----------------|
|-----------------|-----------------|-----------------|-----------------|
|-----6-------6--/|-----9-------9---|-9-9-9-9-9-9-9-9-|-9-9-9-9-9-9-9-9-|
|-4-------4-----4/|-7-------7-----7-|-9-9-9-9-9-9-9-9-|-9-9-9-9-9-9-9-9-|
|-----------------|-----------------|-7-7-7-7-7-7-7-7-|-7-7-7-7-7-7-7-7-|
|-----------------|-----------------|-----------------|-----------------|


Guitar Solo

|-------------------------------------------|
|-------------------------------------------|
|-7--7--9---11--9----11--9----11-11---------|
|-----------------------------------11--11--|
|-------------------------------------------|
|-------------------------------------------|

|-------------------------------------------|
|-7--7--9---11--9----11--9---9----11--13----|
|-------------------------------------------|
|-------------------------------------------|
|-------------------------------------------|
|-------------------------------------------|

|-------------------------------------------|
|-------------------------------------------|
|-7--7--9---11--9----11--9----11-11---------|
|-----------------------------------11--11--|
|-------------------------------------------|
|-------------------------------------------|

|----------------------------|
|-7--7--9---11--9----11--9---|
|----------------------------|
|----------------------------|
|----------------------------|
|----------------------------|

E5*(X)


Verso

       A5            E(no5)   F#5           C#5
Vi krecer mil veces ideas aka vi sembrar sonrisas en
  F#5            A5          E5
algun lugar de esta ciudad y todo ya no esta
       A5                E(no5)      F#5          C#5
Cuando la ilusion es solo decepcion cuando los esfuerzos
         F#5        A5          E5*
se ahogaron en este desierto donde nada duro ¡yo grite!


Coro

D5             A5        E5*                   F#5
   No kiero sobrevivir       mientras trantan de existir
D5       A5        E5*     F#5* G#5*
   yo preferiria vivir
D5           A5          E5*            F#5
   Una vida kon sentido      mientras estan dormidos
   D5    A5    E5*(X)
   yo kiero vivir

A5


Esa es toda la kancion... konsultas... dudas o kualkier huevada eskribanme a
funkyjarek@ GRACIAS!...


Esta kancion se la dediko a SANDY ESPIRITU REYNA... no se si pa' kuando salga publikado
este tab... aun sigamos viendonos... pero lo ke estoy seguro es ke eres lo mejor ke me
ha pasado... alla por el tiempo del PLaza Rock... siempre estaras en mi korazon...
Sandy...

TE KIEROOOOOOOOOOOO...             (sera pes!!!)...


Kizas ya no te vea... ni te akuerdes de mi... pero igual lo mio nunka kambiara... aaaaa
Suggest correction
Creating personal tab
Creating personal tab
You can edit any tab online and save it as your Personal.

You can edit, replace or remove any tab part or add personal notes – all changes will be seen only by you.

Personal tabs can be accessed anytime from any device, even offline.
Learn more »
Give kudos to tab author, rate the tab!
1 2 3 4 5
comments
print report bad tab
guest
Wanna post a correction for this tab? Suggest correction