Oops, an error
Loading. Please wait.

Camino Al Sol tab

version 2
version 2

Whole song

16 views 1 this week
no commentswrite comment
1 2 3 4 5
3 more votes to show rating
add to favorites
×
Save as Personal and add changes to this tab that will be seen only by you. Learn more ›
×
You can save this tab as Personal to edit and correct it or add notes. All changes will be seen only by you. Learn more »
launch autoscroll
font size
0
reset
how to read this tab
guitar tuner
edit
Autoscroll
slow
fast
+/-
esc
set tempo
stop
CAMINO AL SOL
esta es kancion es bien chevere
puta no se komo no la publikaron antes, 
saludos a la jente de  
pa frank, joshua, j.l. y lengua
buena banda ah!!!
y pa los broders oki y mario jejeeeee


Intro:
  A5                       D5
|---------------------------------------------------|
|--------------------------77-----------------------|
|-99-77-66----------66-77-----77-66----------66-77--|
|----------99-77-99-----------------99-77-99--------|
|---------------------------------------------------|
|---------------------------------------------------|

  F#5                      B5
|---------------------------------------------------|
|--------------------------77----------77-----------|
|-99-77-66----------66-77-----77-66-------77-66-----|
|----------99-77-99-----------------99----------99--|
|---------------------------------------------------|
|---------------------------------------------------|

  A5                       D5
|---------------------------------------------------|
|--------------------------77-----------------------|
|-99-77-66----------66-77-----77-66----------66-77--|
|----------99-77-99-----------------99-77-99--------|
|---------------------------------------------------|
|---------------------------------------------------|

  F#5                      B5          D5 B5
|--------------------------------------------|
|--------------------------77----------------|
|-99-77-66----------66-77-----77-66----77----|
|----------99-77-99-----------------99----9--|
|--------------------------------------------|
|--------------------------------------------|

ya kasi olvido..............

*versos:
A5-D5-F#5-B5-D5-E5
A5-D5-F#5-B5-G5-E5

*Koro(todo 2 veces)
F#5-D5 (despues de estas notas la guitarra hace esto: A|--7-5-4--|
F#5-e5-A5-B5(en los 3 ultimos akordes la otra guitarra mantiene una E8)

*el verso de nuevo

*koro de nuevo

*esta es la parte muteada(los dos ultimos no se mutean)
  A5-D5-F#5-B5-D5-E5

*SOLO (de fondo van estos akorde: A5-D5-F#5-B5-D5-E5)
|--------------|
|--------------|
|--------------|
|--------------|4 veces
|-77-55-44-55--|
|--------------|

|--------------------------------|
|--------------------------------|
|----------7-9-7-6-7--7-7-9-9-9--|
|--------------------------------|
|----4-5-4-----------------------|
|--2-----------------------------|

*despues de el solo es A5

*y de nuevo el verso

*otro koro mas

*despues este puente
   A5   D5 E5 A5
|-----------------|
|-----------------|
|--66--6-7--9--6--|
|-----------------|
|-----------------|
|-----------------|

  A5                       D5
|---------------------------------------------------|
|--------------------------77-----------------------|
|-99-77-66----------66-77-----77-66----------66-77--|
|----------99-77-99-----------------99-77-99--------|
|---------------------------------------------------|
|---------------------------------------------------|

  F#5                      B5          D5 B5
|--------------------------------------------|
|--------------------------77----------------|
|-99-77-66----------66-77-----77-66----77----|
|----------99-77-99-----------------99----9--|
|--------------------------------------------|
|--------------------------------------------|


NOTA:
  E8 E5
|----------|
|----------|
|-9--------|
|-x--------|
|-7---2----|
|-----0----|

en el koro esta parte es en la kinta kuerda 'la':A|--7-5-4--|

            
            
Suggest correction
Creating personal tab
Creating personal tab
You can edit any tab online and save it as your Personal.

You can edit, replace or remove any tab part or add personal notes – all changes will be seen only by you.

Personal tabs can be accessed anytime from any device, even offline.
Learn more »
Give kudos to tab author, rate the tab!
1 2 3 4 5
comments
print report bad tab
guest
Wanna post a correction for this tab? Suggest correction