Oops, an error
Loading. Please wait.

Ultima Parada tab

30 views 1 this week
no commentswrite comment
1 2 3 4 5
3 more votes to show rating
add to favorites
×
Save as Personal and add changes to this tab that will be seen only by you. Learn more ›
×
You can save this tab as Personal to edit and correct it or add notes. All changes will be seen only by you. Learn more »
launch autoscroll
font size
0
reset
how to read this tab
guitar tuner
edit
Autoscroll
slow
fast
+/-
esc
set tempo
stop
ULTIMA PARADA

Acodes a usar:

         D5  A5    B5    G5  G5    F#5  E5 
E  |---------------------------------------------------|
B |---------------------------------------------------|
G |---7---------------------12---11---9------------|
D |---7----7-----9-----5---12---11---9------------|
A |---5----7-----9-----5---10----9---7------------|
E  |--------5-----7-----3----------------------------|


INTRO:

D5 muteado

E  |--------------------------------------|
B |-------5------5----5----5------5----|
G |----------7------7----7-----7-----7-|
D |------- -------------------------------|
A |---------------------------------------|
E |---------------------------------------|

D5  A5    B5    G5  (X5)

En la tercera  y cuarta vez haces

E  |---------------------------------------|
B |--3-3-3-3---3-3---3-3---3-3---3-3|
G |---------------------------------------|
D |------- -------------------------------|
A |---------------------------------------|
E |---------------------------------------|

En la quinta

E  |----------------------------------------|
B |----------------------------------------|
G |----------------------------------------|
D |----4-2---4-2----4-2----4----2-4--|
A |----------------------------------------|
E |----------------------------------------|


g5 f#5 e5

ESTROFA

D5 A5 B5 G5(Todo Así)

(Lo que esta en negrita es muteado)

Te vi salir, volver aquí
Vivir corriendo no es mi idea de ser feliz
Me voy de aquí, te oí decir
Seguir huyendo no es la forma de verte vivir
Vuelves acá, una vez más
Sigues pensando que algún día podrás parar
Sueñas crecer, y no volver, a caeeeeer

E  |------5--5--7--7--9--9--------------|
B |---------------------------------------|
G |---------------------------------------|
D |---------------------------------------|
A |---------------------------------------|
E |---------------------------------------|

CORO

Sin un lugar a donde ir, la calle se esconde de ti, la parada del bus no está
Y tus amigos en la esquina se escapan de tu rutina y el papa no te habla más
Llego el momento de tu vida para buscar la salida y no correr sin verte atrás

        A5            G5      
Y no quieres seguir, si no puedes seguir 
      A5                  G5
Solo debes seguir, pensando en que no te volverás a equivocar

D5      A5      B5      G5      (X5)

e |5-5-5-5-5-5-5-5-5-5--3-2-3-1-----------------------------------------------------------------------------------------5-7-5-3-5-3-5-10|
B |-----------------------------------3---3------------------------------------------------------------3--5--3---3-3--5-3-5-------------------|
G |--------------------------------------------5--2--5--2------------------------------------2--5--2---------5---------------------------------|
D |---------------------------------------------------------5--3--5--3----0--0--3--0--3--5----------------------------------------------------|
A |------------------------------------------------------------------------------------------------------------------------------------------------|
E |------------------------------------------------------------------------------------------------------------------------------------------------|

ESTROFA
D5 A5 B5 G5(Todo Así)
(Lo que esta en negrita es muteado)

La poca luz, se volvió gris
El día perfecto que buscabas se alejo de ti
Difícil es, volver a unir
Poner tu mente y cuerpo en un mismo lugar
Ese secreto en tu interior, nadie lo ocultó mejor
Sueñas volver y no tener que caeeeeeeeeer

E  |------5--5--7--7--9--9--------------|
B |---------------------------------------|
G |---------------------------------------|
D |---------------------------------------|
A |---------------------------------------|
E |---------------------------------------|

CORO
Sin un lugar a donde ir, la calle se esconde de ti, la parada del bus no está
Y tus amigos en la esquina se escapan de tu rutina y el Papa no te habla más
Llego el momento de tu vida para buscar la salida y no correr sin verte atrás
        A5            G5      
Y no quieres seguir, si no puedes seguir 
      A5                  G5
Solo debes seguir, pensando en que no te volverás a equivocar

D5  A5    B5    G5  (X5)

En la tercera  y cuarta vez haces
E  |---------------------------------------|
B |--3-3-3-3---3-3---3-3---3-3---3-3|
G |---------------------------------------|
D |------- -------------------------------|
A |---------------------------------------|
E |---------------------------------------|

En la quinta
E  |----------------------------------------|
B |----------------------------------------|
G |----------------------------------------|
D |----4-2---4-2----4-2----4----2-4--|
A |----------------------------------------|
E |----------------------------------------|


Salida

g5 f#5 e5 D5
Suggest correction
Creating personal tab
Creating personal tab
You can edit any tab online and save it as your Personal.

You can edit, replace or remove any tab part or add personal notes – all changes will be seen only by you.

Personal tabs can be accessed anytime from any device, even offline.
Learn more »
Give kudos to tab author, rate the tab!
1 2 3 4 5
comments
print report bad tab
guest
Wanna post a correction for this tab? Suggest correction