Oops, an error
Loading. Please wait.

Danube Waves tab

5,750 views 6 this week
no commentswrite comment
1 2 3 4 5
3 more votes to show rating
add to favorites
×
Save as Personal and add changes to this tab that will be seen only by you. Learn more ›
×
You can save this tab as Personal to edit and correct it or add notes. All changes will be seen only by you. Learn more »
launch autoscroll
font size
0
reset
how to read this tab
guitar tuner
edit
Autoscroll
slow
fast
+/-
esc
set tempo
stop
Author
Danube Waves - Jan Ivanovici (Iosif Ivanovici) (1848-1905)

This tune might be better known as 'Oh How We Danced' or "Anniversary Waltz".
It's a fairly easy piece to play in 3/4 time. It should be played allegretto.
It begins in the key of Am, moves to F and then back to Am.


0   |       |   |   |       |   |   |       |   |   |       |   |   |
E-------||--------------|---------------|---------------|---------------|
B-------||------3---3---|---------------|---0-----------|---------------|
G-------||*-----1---1---|-------1---2---|-------1---1---|-------1-------|
D---2---||*-2-----------|---------------|-------0---0---|-----------2---|
A-------||--------------|---------------|---------------|---------------|
E-------||--0-----------|---0-----------|---0-----------|---0-----------|

5   |   |   |       |   |   |       |   |   |       |   |   |
E---------------|---------------|---0-----------|-----------0---|
B---1-----------|-------0-------|---------------|---------------|
G-------2---2---|-----------2---|-------2---2---|-------2-------|
D-------2---2---|-------2-------|-------2---2---|-------2-------|
A---0-----------|---3-----------|---0-----------|---0-----------|
E---------------|---------------|---------------|---------------|

9   |   |   |       |   |   |       |   |   |       |   |   |
E---1-----------|-------0-------|---0-----------|---------------|
B-------3---3---|-----------3---|---------------|-------3---1---|
G-------2---2---|-------2-------|-------2---2---|-------2-------|
D---0-----------|---0-----------|-------2---2---|-------2-------|
A---------------|---------------|---0-----------|---0-----------|
E---------------|---------------|---------------|---------------|

                                1st............................
13  |   |   |       |   |   |       |   |   |       |   |   |
E---------------|---------------|---------------|--------------||
B---0-----------|-------1---0---|---------------|--------------||
G-------1---1---|-------1-------|---2-----------|-------------*||
D-------0---0---|-------0-------|-------2-------|-----------2-*||
A---------------|---------------|---0-------3---|---0----------||
E---0-----------|---0-----------|---------------|--------------||

2nd.............................   B3___________________________
30  |   |   |       |   |   |       |   |   |       |   |   |
E---------------|---------0-1-3-||--5---5---5---|---5---5---5---|
B---------------|---0-1-3-------||------3---3---|-------3---3---|
G---2-----------|---------------||*-----4---4---|-------4---4---|
D-------2-------|---------------||*-----3---3---|-------3---3---|
A---0-------0---|---------------||--------------|---------------|
E---------------|---------------||--3-----------|---3-----------|

35 |   |   |      |   |   |      |   |   |      |   |   |      |   |   |
E--5---3---2---|--3-----------|--1---1---1---|--1---1---1---|--1---0-------|
B--------------|--------------|------0---0---|------0---0---|----------4---|
G--------------|------0---0---|------0---0---|------0---0---|--------------|
D--------------|------2---2---|------0---0---|------0---0---|--------------|
A--3-----------|--3-----------|--------------|--------------|--3-----------|
E--------------|--------------|--3-----------|--3-----------|--------------|

40 |   |   |      |   |   |      |   |   |      |   |   |      |   |   |
E--0-----------|--------------|--------------|--------------|----------5---|
B------1---1---|--3---3---3---|--3---3---3---|--3---1---0---|--------------|
G------0---0---|------1---1---|------1---1---|--------------|--2-----------|
D------2---2---|------2---2---|------2---2---|--3---2---0---|--------------|
A--3-----------|--------------|--------------|--0-----------|--3---0-------|
E--------------|--0-----------|--0-----------|--------------|--------------|


                                                            key changes to F
45 |   |   |      |   |   |      |   |   |      |   |   |      |   |   |
E--1-----------|--------------|--------------|-------------||--------------|
B------3---0---|--1-------0---|--------------|-------------||--3-------1---|
G--------------|------1-------|--2-----------|--2---1---2-*||*-------------|
D--0---3-------|------0-------|------2-------|------------*||*-----2-------|
A--------------|--------------|--0-------0---|-------------||--------------|
E--------------|--0-----------|--------------|-------------||--0-----------|


                                               B1______               B1___
66 |   |   |      |   |   |      |   |   |      |   |   |      |   |   |
E--------------|--------------|--------------|--1-------0---|--------------|
B--1-----------|--------------|--------------|--------------|--3-------1---|
G----------3---|--3-----------|--3---2---3---|------2-------|-------2------|
D------2-------|------2---2---|--------------|------3-------|--------------|
A--3-----------|--------------|--3-----------|--------------|--3-----------|
E--------------|--0-----------|--------------|--1-----------|--------------|


 B1_________________________
71 |   |   |      |   |   |      |   |   |      |   |   |      |   |   |
E--------------|--------------|--------------|--------------|--------------|
B--------------|--------------|--3-------1---|--1-------0---|--------------|
G--2-----------|--2---1---2---|--------------|--------------|--------------|
D------3---3---|--------------|--------------|--------------|--2-----------|
A------3---3---|--------------|------3-------|------3-------|------3---3---|
E--1-----------|--1-----------|--0-----------|--0-----------|--0-----------|

76 |   |   |      |   |   |      |   |   |      |   |   |      |   |   |
E--------------|--------------|-------------|---------------|-------------||
B--------------|--------------|--1-------0--|---------------|-------------||
G--------------|--------------|------1------|---2-----------|------------*||
D--2---1---2---|--3-------2---|------0------|------2--------|----------2-*||
A------3-------|------2-------|-------------|---0-------3---|--0----------||
E--0-----------|--0-----------|--0----------|---------------|-------------|| 

   key returns to Am
97 |   |   |      |   |   |      |   |   |      |   |   |      |   |
E--------------|--------------|--------------|--------------|--------------|
B------3---3---|--------------|--------------|--------------|--1-----------|
G------1---1---|------1---2---|------1---1---|------1-------|------2---2---|
D--2-----------|--------------|------0---0---|----------2---|------2---2---|
A--------------|--------------|--------------|--------------|--0-----------|
E--0-----------|--0-----------|--0-----------|--0-----------|--------------|

102|  |   |      |   |   |      |   |   |      |   |   |      |   |   |
E--------------|--0-----------|----------0---|--1-----------|------0-------|
B------0-------|--------------|--------------|------3---3---|----------3---|
G----------2---|------2---2---|------2-------|------2---2---|------2-------|
D------2-------|------2---2---|------2-------|--0-----------|--0-----------|
A--3-----------|--0-----------|--0-----------|--------------|--------------|
E--------------|--------------|--------------|--------------|--------------|

107|   |   |      |   |   |      |   |   |      |   |   |      |   |   |
E--0-----------|--------------|--------------|--------------|--------------|
B--------------|------3---1---|--0-----------|------1---0---|--------------|
G------2---2---|------2-------|------1---1---|------1-------|--2-----------|
D------2---2---|------2-------|------0---0---|------0-------|------2-------|
A--0-----------|--0-----------|--------------|--------------|--0-------0---|
E--------------|--------------|--0-----------|--0-----------|--------------|

                       B3______________________
112|   |   |       |   |   |       |   |   |       |   |   |
E--------0-1-3-||--5---5---5---|---5---5---5---|---5---3---2---|
B--0-1-3-------||------3---3---|-------3---3---|---------------|
G--------------||*-----4---4---|-------4---4---|---------------|
D--------------||*-----3---3---|-------3---3---|---------------|
A--------------||--------------|---------------|---3-----------|
E--------------||--3-----------|---3-----------|---------------|

116|   |   |      |   |   |      |   |   |      |   |   |      |   |   |
E--3-----------|--1---1---1---|--1---1---1---|--1---0-------|--0-----------|
B--------------|------0---0---|------0---0---|----------4---|------1---1---|
G------0---0---|------0---0---|------0---0---|--------------|------0---0---|
D------2---2---|------0---0---|------0---0---|--------------|------2---2---|
A--3-----------|--------------|--------------|--3-----------|--3-----------|
E--------------|--3-----------|--3-----------|--------------|--------------|

                              Tennuto
121|   |   |      |   |   |      |   |   |      |   |   |      |   |   |
E--------------|--------------|--------------|----------5---|--1-----------|
B--3---3---3---|--3---3---3---|--3---1---0---|--------------|------3---0---|
G------1---1---|------1---1---|--------------|--2-----------|--------------|
D------2---2---|------2---2---|--3---2---0---|--------------|--0---3-------|
A--------------|--------------|--0-----------|--3---0-------|--------------|
E--0-----------|--0-----------|--------------|--------------|--------------|

126|   |   |      |   |   |      |   |   |       |   |   |
E--------------|--------------|--------0-1-3-||--5---------||
B--1-------0---|--------------|--0-1-3-------||------------||
G------1-------|--2-----------|-------------*||--5---------||
D------0-------|------2-------|-------------*||------------||
A--------------|--0-------0---|--------------||------------||
E--0-----------|--------------|--------------||------------||
                                                         Fine

            
            
Suggest correction
Creating personal tab
Creating personal tab
You can edit any tab online and save it as your Personal.

You can edit, replace or remove any tab part or add personal notes – all changes will be seen only by you.

Personal tabs can be accessed anytime from any device, even offline.
Learn more »
Give kudos to tab author, rate the tab!
1 2 3 4 5
comments
print report bad tab
guest
You may want to rate the tab now too:
select rating
Wanna post a correction for this tab? Suggest correction