Oops, an error
Loading. Please wait.

Gak Ada Takutnya Tab

8,166 views 6 this week
no commentswrite comment
1 2 3 4 5
please rate
add to favorites
launch autoscroll
font size
0
reset
how to read this tab
guitar tuner
Tab Pro tools
  • play this tab
  • loop segment
  • change instrument
  • show fretboard
  • metronome
×
Best way to learn
"Gak Ada Takutnya"
Autoscroll
slow
fast
+/-
esc
set tempo
stop
Contributor
Song title   : Gak Ada Takutnya
Artist       : Ipang


Fig1
e|------------------------------------------------------------------------------------|
B|------------------------------------------------------------------------------------|
G|--2------2-2-----2-2-----2-2--2-----------------------------------------------------|
D|--2------2-2-----2-2-----2-2--2-----------------------------------------------------|
A|--0------0-0-----0-0-----0-0--0-----------------------------------------------------|
E|-----0h3-----0h3-----0h3------------------------------------------------------------|

Fig2
e|------------------3-------2---3--3--2---------------------------------------------|
B|------5--------------3----3---3--3--3---------------------------------------------|
G|--4h5----3----4h5-------4-2---2--2--2---------------------------------------------|
D|----------------------------------------------------------------------------------|
A|----------------------------------------------------------------------------------|
E|----------------------------------------------------------------------------------|

Fig3
e|--2---3--3--2--------------------------------------------------------------|
B|--3---3--3--2--------------------------------------------------------------|
G|--2---2--2--2--------------------------------------------------------------|
D|---------------------------------------------------------------------------|
A|---------------------------------------------------------------------------|
E|---------------------------------------------------------------------------|

Fig4
e|---------------------------------------------------------------------------|
B|--10-10-10-10-10-10-10-10--8h10-8-10-8-------------------------------------|
G|--9--9--9--9--9--9--9--9---------------7-5-7-------------------------------|
D|----------------------------------------------7-5--------------------------|
A|--------------------------------------------------5------------------------|
E|---------------------------------------------------------------------------|

e|--------------------------------------------------10p8p7-------------------|
B|------------------------------------------8h10p8---------10p8p6------------|
G|----------------------5h7p5h7p5--7h9o7h9-------------------------7h9p7h9---|
D|------------5h7p5h7p5------------------------------------------------------|
A|--5h7p5h7p5----------------------------------------------------------------|
E|---------------------------------------------------------------------------|

e|----------------8-10-12--------13p10-12p10-------13p10-12p10-------13p10---|
B|--------8-10-12----------10h12-------------10h12-------------10h12---------|
G|--5-7-9--------------------------------------------------------------------|
D|---------------------------------------------------------------------------|
A|---------------------------------------------------------------------------|
E|---------------------------------------------------------------------------|

e|--12p10-------13p10-12p10--10h12p10----------------------------------------|
B|--------10h12-----------------------10h12p10-8h10p8------------------------|
G|-----------------------------------------------------7h9p7-----------------|
D|---------------------------------------------------------------------------|
A|---------------------------------------------------------------------------|
E|---------------------------------------------------------------------------|

e|----------------------------------------16--16--16-------------------------|
B|-------------10--10--10----15--15--15--------------------------------------|
G|--9--9--9------------------------------------------------------------------|
D|---------------------------------------------------------------------------|
A|---------------------------------------------------------------------------|
E|---------------------------------------------------------------------------|


CHORD
==============================================================================

D    G        D             G         A   [Fig1]
aku, gak mau, perduli lagi, sama semuanya
D           G       D         G               A   [Fig1]
ambil, enaknya aja, persetan, dengan yang lainnya


[Fig2]
C                              G        D
kalau masih manusia, aku nggak ada takutnya
C                                      G       D          A  [Fig1]
mending diam jangan ganggu, dan jangan pernah, banyak bicara

D    G       D         G              A   [Fig1]
aku, bicara, kau yang, harus mendengarkan
D         G       D         G          A   [Fig1]
apa, yang ku mau, kau yang, harus sediakan

[Fig2]
C                            G         D
jangan pernah mimpi kau bisa kalahkan aku
C                         G         D            A  [Fig1]
seberapapun nyalimu nggak akan sebanding dengan aku

G
hey! hey! hey! hey! hey! hey!
               D   [Fig3] D7
jangan ganggu aku!

G
hey! hey! hey! hey! hey! hey!
          D    [Fig3] D7
pergi dariku!

[Fig2]
C                              G        D
kalau masih manusia, aku nggak ada takutnya
C                                      G       D          A  [Fig1]
mending diam jangan ganggu, dan jangan pernah, banyak bicara


[Fig3]
D G D G A
D G D G A


[Fig2]
C                              G        D
kalau masih manusia, aku nggak ada takutnya
C                            G             D
seberapapun nyalimu nggak sebanding dengan ku
C                            G         D
jangan pernah mimpi kau bisa kalahkan aku
C                               G              D          A  [Fig1]
mending diam jangan ganggu, dan jangan pernah, banyak bicara

G
hey! hey! hey! hey! hey! hey!
               D   [Fig3] D7
jangan ganggu aku!

G
hey! hey! hey! hey! hey! hey!
          D
pergi dariku!
comments
We did not receive enough feedback on this tab! Please rate:
print report bad tab
1 2 3 4 5
I want to post or [tab]
guest
You may want to rate the tab now too:
select rating
Please do not post tabs as comments. Select "correction" instead!