Oops, an error
Loading. Please wait.

Sahabat Kecil Tab

13,098 views 120 this week
no commentswrite comment
1 2 3 4 5
excellent!
x 2
add to favorites
launch autoscroll
font size
0
reset
how to read this tab
guitar tuner
Tab Pro tools
  • play this tab
  • loop segment
  • change instrument
  • show fretboard
  • metronome
Autoscroll
slow
fast
+/-
esc
set tempo
stop
Contributor
Song        : Sahabat Kecil
Artist      : Ipang
Tabbed by   : yoos (yoosyoes.blogspot.com)


A          Bm         C#m        D          E          F#m
e|--0--|   e|--0--|   e|--0--|   e|--0--|   e|--0--|   e|--0--|
B|--0--|   B|--0--|   B|--0--|   B|--0--|   B|--0--|   B|--0--|   
G|--2--|   G|--4--|   G|--6--|   G|--7--|   G|--9--|   G|--11-|   
D|--2--|   D|--4--|   D|--6--|   D|--7--|   D|--9--|   D|--11-|   
A|--0--|   A|--2--|   A|--4--|   A|--5--|   A|--7--|   A|--9--|   
E|-----|   E|-----|   E|-----|   E|-----|   E|-----|   E|-----|   


Fig1
e|----------------------------------------------|
B|----9-10-9-10-10---10-10-10-10---10-10-10-10--|
G|--9-------------------------------------------|
D|----------------------------------------------|
A|----------------------------------------------|
E|----------------------------------------------|

Fig2
e|--------------------------------------------------------------------|
B|--------------------------------------------------------------------|
G|--4-4-4/6-6-6---6-6-6-6---6-6-6-6---6-6-6-6---4-4-4-4---4-4-4-4-----|
D|--------------------------------------------------------------------|
A|--------------------------------------------------------------------|
E|--------------------------------------------------------------------|

e|--------------------------------------------------------------------|
B|--------------------------------------------------------------------|
G|--4-4-4-4---4-4-4-4---4/6-6-6---6-6-6-6---6-6-6-6---6-6-6-6---------|
D|--------------------------------------------------------------------|
A|--------------------------------------------------------------------|
E|--------------------------------------------------------------------|

e|--------------------------------------------------------------------|
B|--------------------------------------------------------------------|
G|--6/7-7-7---7-7-7-7---7-7-7-7---------------------------------------|
D|--------------------------------------------------------------------|
A|--------------------------------------------------------------------|
E|--------------------------------------------------------------------|

Fig3
e|-----------------0---0---------0---------0--------------------------|
B|--------0--------------------0--------------0-----------------------|
G|------2--------------------2-----------2----------------------------|
D|----2---------------------------------------------------------------|
A|--0-------2----5---5-----0-------2---5------7-----------------------|
E|--------------------------------------------------------------------|

e|--------0---------0----------------------------------0---0----------|
B|------0---------0--------0-----0-----0-----0-----0-----0-0----------|
G|-----------------------------------------------2---2-----2----------|
D|----6---------7--------4-----6-----7-----9---4----------------------|
A|--4---------5--------2-----4-----5-----7----------------------------|
E|--------------------------------------------------------------------|

Fig4
e|---------0---------0---------0---------0----------------------------|
B|-------0---------0---------0---------0------------------------------|
G|-----2---------2---------2---------2--------------------------------|
D|--------------------------------2-----------------------------------|
A|--0---------0---------0---------------------------------------------|
E|--------------------------------------------------------------------|

Fig5
e|--5----4----2-------------------------------------------------------|
B|----5----5-----3----------------------------------------------------|
G|------------------2-------------------------------------------------|
D|--------------------------------------------------------------------|
A|--------------------------------------------------------------------|
E|--------------------------------------------------------------------|

Fig6
e|--------------------------------------------------------------------|
B|--------------------------------------------------------------------|
G|--9--6h9-9-9--------------------------------------------------------|
D|--------------------------------------------------------------------|
A|--------------------------------------------------------------------|
E|--------------------------------------------------------------------|

Fig7
e|--------------------------------------------------------------------|
B|--------------0--------------3--------------------------------------|
G|-------------2------2------2----------------------------------------|
D|---9----6---0------2-----0------------------------------------------|
A|--7----4----------0-------------------------------------------------|
E|--------------------------------------------------------------------|



CHORD
=====

Guitar1 : Fig1
Guitar2 : Fig2
A D A D

Fig3
A      Bm     D
baru saja berakhir
A        Bm   D E
hujan di sore ini
 C#m         D
menyisakan keajaiban
 Bm     C#m      D  E  F#m
kilauan indahnya pelangi
   
A          Bm      D   
tak pernah terlewatkan
A          Bm    D   E 
dan tetap mengagumiNya
C#m          D
kesempatan seperti ini
Bm       C#m    D E A
tak akan bisa dibeli

Fig4
E-D             C#m 
bersamamu kuhabiskan waktu
       Bm              A E
senang bisa mengenal dirimu
  D               C#m
rasanya semua begitu sempurna
       Bm        C#m    D Dm
sayang untuk mengakhirinya

Fig5
A A
A D
F#m D E

A       Bm     D   
melawan keterbatasan
  A       Bm       D  E
walau sedikit kemungkinan
   C#m            D
takkan menyerah untuk hadapi
Bm           C#m     D E      
hingga sedih tak mau datang lagi...

Fig2
A D A D

D             C#m 
bersamamu kuhabiskan waktu
       Bm              A E
senang bisa mengenal dirimu
  D               C#m
rasanya semua begitu sempurna
       Bm        C#m    D Dm
sayang untuk mengakhirinya

Fig5
          A
janganlah berganti
          A
janganlah berganti 
          A
janganlah berganti
         F#m  D   E
tetaplah seperti ini

A D

Fig6
A D 

Fig7
comments
We did not receive enough feedback on this tab! Please rate:
print report bad tab
1 2 3 4 5
I want to post or [tab]
guest
You may want to rate the tab now too:
select rating
Please do not post tabs as comments. Select "correction" instead!