Oops, an error
Loading. Please wait.

Tentang Cinta Tab

42,734 views 288 this week
no commentswrite comment
1 2 3 4 5
excellent!
x 4
add to favorites
launch autoscroll
font size
0
reset
how to read this tab
guitar tuner
Tab Pro tools
  • play this tab
  • loop segment
  • change instrument
  • show fretboard
  • metronome
Autoscroll
slow
fast
+/-
esc
set tempo
stop
Contributor
Song         : Tentang Cinta
Artist       : Ipang
Tabbed by    : yoos (yoosyoes.blogspot.com)


e|---------0-----------------------------------------------------------------------------|
B|-----1-----1-----------3----------------------(8)-------------(7)----------------------|
G|-------0-----0-------2----2---------------(9)-----(9)-------------(8)------------------|
D|---------------2---0--------0---------(9)-------------(9)-------------(8)--------------|
A|--3--------------0------------0---(7)---------------------(7)-------------(6)-(5)-(7)--|
E|--------------------------------0------------------------------------------------------|

e|---------0-------------------------------------------------------|
B|-----1-----1-----------3----------------0------------------------|
G|-------0-----0-------2----2-----------0---0-----------0-------0--|
D|---------------2---0--------0-------2-------2-------2---0---0----|
A|--3--------------0------------0---2-----------2---2-------0------|
E|--------------------------------0---------------0----------------|

@Reff
e|---------0------------------------------------------0--------|
B|-----1-----1-----------3----------0-------0-------0---0------|
G|-------0-----0-------2----------0-------0-------0-------0----|
D|---------------2---0----------0-------0-------0-----------0--|
A|--3--------------0-------------------------------------------|
E|----------------------------3-------2-------0----------------|

e|---------0-------------------------------------------------------|
B|-----1-----1-----------3----------------0------------------------|
G|-------0-----0-------2----2-----------0---0-----------0-------0--|
D|---------------2---0--------0-------2-------2-------2---0---0----|
A|--3--------------0------------0---2-----------2---2-------0------|
E|--------------------------------0---------------0----------------|

e|---------0------------------------------------------0--------|
B|-----1-----1-----------3----------0-------0-------0---0------|
G|-------0-----0-------2----------0-------0-------0-------0----|
D|---------------2---0----------0-------0-------0-----------0--|
A|--3--------------0-------------------------------------------|
E|----------------------------3-------2-------0----------------|

e|---------0-----------------------------------------|
B|-----1-----1-----------3----------------0----------|
G|-------0-----0-------2----2-----------0---0--------|
D|---------------2---0--------0-------2-------2------|
A|--3--------------0------------0---2-----------2----|
E|--------------------------------0---------------0--|


@Solo
e|-------------------------------------------------------------------------------|
B|-----------------7-7-8---------------------------------------------------------|
G|-----7-----------------7-------------------------------------------------------|
D|--/5-----9p7-9-------------9-9-7-/9---7p5-4-5-4--------------------------------|
A|------------------------------------------------5------------------------------|
E|-------------------------------------------------------------------------------|

e|------------------------------------------------5-7-8p7-5-7--10--8--8p7----7---|
B|----------------------------------5h7p5---5-7-8-------------------------10-----|
G|--------------------4h5p4---4-5-7-------7--------------------------------------|
D|------4h5p4---4-5-7-------7----------------------------------------------------|
A|--5-7-------7------------------------------------------------------------------|
E|-------------------------------------------------------------------------------|

e|--8p7----7----------------------------------------------|
B|------10----10-8-7---8p7-----------------10-10-10--8-7-8|
G|-------------------9-----9-7-9p7---7-9------------------|
D|---------------------------------9----------------------|
A|--------------------------------------------------------|
E|--------------------------------------------------------|

------------------------------------------------------|
---7-----------------------8---10-10/12\10-8-7-8p7----|
-9---7-9---7-----------7-----9---------------------9--|
---------9---7-9---7-9---9----------------------------|
-----------------9------------------------------------|
------------------------------------------------------|


e|----------------------------------------------------|
B|----/8-7-5---/7--5-5-------5------/8-7-/10-8-7------|
G|--4--------7---------7-4-7------4--------------7-5--|
D|----------------------------------------------------|
A|----------------------------------------------------|
E|----------------------------------------------------|


CHORD

Intro
C D Em  C D Em 2x

C        D          Em                  C
Sekilas tentang dirimu yang lama ku nanti
   D        Em                    C
Memikat hatiku jumpamu pertama kali
             D         Em                     C
Janji yang pernah terucap tuk satukan hati kita
            D         Em
Namun tak pernah terjadi


                 C       D
Mungkinkah masih ada waktu
         G    F#m   Em
Yang tersisah untukku
                 C       D       Em
Mungkinkah masih ada cinta dihatimu
              C     D
Andaikan saja aku tau
            G     F#m  Em
Kau tak hadirkan cintamu
               C      D        Em
Ingin ku melepasmu dengan pelukan


C        D            Em                        C
Sesal yang datang selalu takan membuat mu kembali
          D                  Em
Maafkan aku yang tak pernah tau
                 D                C
Hingga semuanyapun kini telah berlalu
 D       Em   C
Maafkan aku
 D       Em
Maafkan aku

Solo
C D Em C D Em 2x

C        D            Em                        C
Sesal yang datang selalu takan membuat mu kembali
          D                  Em
Maafkan aku yang tak pernah tau
                 D                C
Hingga semuanyapun kini telah berlalu
 D       Em   C
Maafkan aku
 D       Em
Maafkan aku

C        D            Em                        C
Sesal yang datang selalu takan membuat mu kembali
          D                  Em
Maafkan aku yang tak pernah tau
                 D                C
Hingga semuanyapun kini telah berlalu
 D       Em   C
Maafkan aku
 D       Em
Maafkan aku

               C      D        Em
Ingin ku melepasmu dengan pelukan
               C      D        Em
Ingin ku melepasmu dengan pelukan
comments
print report bad tab
I want to post or [tab]
guest
You may want to rate the tab now too:
select rating
Please do not post tabs as comments. Select "correction" instead!