Oops, an error
Loading. Please wait.

Kekal Bahagia Tab

103 views 6 this week
no commentswrite comment
1 2 3 4 5
3 more votes to show rating
add to favorites
launch autoscroll
font size
0
reset
how to read this tab
guitar tuner
Autoscroll
slow
fast
+/-
esc
set tempo
stop
Help us to improve Ultimate-Guitar.com Take our survey!
×
Author
Difficulty
novice
[Solo]

     C          D          Bm     E                  Am           Bm
e|---------------------------------------------------------------------------|
B|--/8----10/12-10-----\8--7--/10-9-----/9-10-12--12/15----13-12--15b--------|
G|---------------------------------------------------------------------------|
D|---------------------------------------------------------------------------|
A|---------------------------------------------------------------------------|
E|---------------------------------------------------------------------------|

    C                                D
e|---------------------------------------------------------------------------|
B|-----------------------------12-13-15--15----------------------------------|
G|-----------11-12-14-11-12-14-----------------------------------------------|
D|--11-12-14-----------------------------------------------------------------|
A|---------------------------------------------------------------------------|
E|---------------------------------------------------------------------------|

              C
Memang benar aku...



************************************

| b   Bend
| /   Slide up
| \   Slide down

************************************
Suggest correction
Give kudos to tab author, rate the tab!
1 2 3 4 5
comments
print report bad tab
guest
You may want to rate the tab now too:
select rating
Wanna post a correction for this tab? Suggest correction