Oops, an error
Loading. Please wait.

Closer Chords

by IQ
446 views 1 this week
no commentswrite comment
1 2 3 4 5
excellent!
x 4
add to favorites
launch autoscroll
font size
0
reset
transpose
0
reset
display chords
guitar tuner
Autoscroll
slow
fast
+/-
esc
set tempo
stop
Help us to improve Ultimate-Guitar.com Take our survey!
×
Author
Difficulty
novice
                                          Artist - IQ
                                         *************
                                         Song - Closer
                                        ***************
                                       Album - Frequency
                                      *******************
                                      Tabbed By - Ayreon77
                                     **********************


ACOUSTIC PICKING - Play this from beginning of song too 02:34 
*****************  When the acoustic solo comes in.

Play this through the verses
[--5-----3-----3-----2------]
[----3-----3-----3-----3----]
[------2-----2-----2-----4--]
[---------------------------]
[---------------------------]
[---------------------------]

------------------------------------------------------
00:15
KEYBOARDS 
**********
------------------------------------------------------
00:46
VERSE 1
********
What began as hope
Became the fate of many nations
Founded on a lie believed by everyone
Slandered and betrayed
A character assassination
Watch the guilty fade
Now the work is done

------------------------------------------------------
01:17
PIANO
******
------------------------------------------------------
01:47
VERSE 2
********
Ghosts of early days
Gather round the later rivals
All parade upon the earth to which they're bound
Silent in their course
They steal across the icy stations
Words are useless now
They fall upon the ground

------------------------------------------------------
02:18
PIANO
******
------------------------------------------------------
02:36
ACOUSTIC SOLO 1
****************

[-------------|----------------|--------s-------]
[-------------|-------s--------|---h---8\10-10--]
[-------s-----|--7-9-9\11-7-7--|--6-------------]
[--7-7-7\9-7--|----------------|----------------]
[-------------|----------------|----------------]
[-------------|----------------|----------------]


------------------------------------------------------
02:49
CHORUS
*******
One and the same, parallels remain
In air as in the flame
I can see everything get closer everyday

------------------------------------------------------
03:07
ACOUSTIC SOLO 2
****************

[----------------|---s--------------|--------s-------]
[----------------|--8\10-8-7-5-7----|-------8\10-10--]
[---s---7--s-----|---------------7--|--6-7-----------]
[--7\9----7\9-7--|------------------|----------------]
[----------------|------------------|----------------]
[----------------|------------------|----------------]


------------------------------------------------------
03:20
KEYBOARDS 
**********
------------------------------------------------------
03:46
HEAVY GUITAR CHORDS - Play until the song finishes
********************
D Bm A G
------------------------------------------------------
04:00
VERSE 3
********
Hold on, when I'm dead and gone from you
Remember me as light breaking through
Stay strong, any time you feel you're lost
I will carry you back across

------------------------------------------------------
04:27
KEYBOARDS 
**********
------------------------------------------------------
04:40
VERSE 4
********
Call out, send the word from there to here
Promise you I'm always near
Know now, nothing anyone can say
Will keep me from you anyway

------------------------------------------------------
05:07
KEYBOARDS 
**********
------------------------------------------------------
05:20
BRIDGE
*******
And in the end
When other days have passed you by
If beauty has a name
Waiting beneath the ruby sky
One and the same
Wanting to keep the pain away
In errors made again
I can see everything get closer every day

------------------------------------------------------
ACOUSTIC PICKING - Play this from to the end of the song.
*****************  

[--5-----3-----3-----2------]
[----3-----3-----3-----3----]
[------2-----2-----2-----4--]
[---------------------------]
[---------------------------]
[---------------------------]

closer every day  X4


closer every day  X8

Hold on
closer every day
Stay Strong
closer every day

Fade Out.


Enjoy.............
Suggest correction
What's this?
You can suggest a correction to this tab. Community and Mods will review your correction and vote to approve or reject it.
comments
print report bad tab
guest
You may want to rate the tab now too:
select rating
Please do not post tabs as comments. Select "correction" instead!