Oops, an error
Loading. Please wait.

Leap Of Faith Tab

by IQ
473 views 1 this week
no commentswrite comment
1 2 3 4 5
excellent!
x 4
add to favorites
launch autoscroll
font size
0
reset
how to read this tab
guitar tuner
Tab Pro tools
  • play this tab
  • loop segment
  • change instrument
  • show fretboard
  • metronome
×
Best way to learn
"Leap Of Faith"
Autoscroll
slow
fast
+/-
esc
set tempo
stop
Contributor
Difficulty
advanced
                                          Artist - IQ
                                         *************
                                     Song - Leap Of Faith
                                    ***********************
                                          Album - Ever
                                         **************
                                      Tabbed By - Ayreon77
                                     **********************


Not sure if these keyboard chords are right or if there in the 
correct order, i just thought i would put them in.
I,m not a keyboard player, so there, there if you wanna use them.
Any corrections to the song let me know, and i,ll correct them.

INTRO - Keyboard - G Bb F -  Bb F F# Ab
****** 
00:16
VERSE 1
********
   Bb         F
   Though you may be now
Bb   F#   Ab
   A long way from home
G  Bb       F
   All your hand-me-downs
Bb F#      Ab
   Live on in their dreams

--------------------------------------------------------------------
00:30    
Section 1 - Play these notes with the lyrics below in this section.
**********
[--------------------|-------------rb--]
[----------4---------|-------4-----7---]
[-4--4-5-7---7-5---4-|-4-5-7---7-5---7-]
[----------------5---|-----------------]
[--------------------|-----------------]
[--------------------|-----------------]

                                                       p
[-----------------|----------------------------|------6-5---]
[-------4---------|-------4------7-8-6---------|-8-6------8-]
[-4-5-7---7-5---4-|-4-5-7---7-5--------7-4-5-7-|------------]
[-------------5---|----------------------------|------------]
[-----------------|----------------------------|------------]
[-----------------|----------------------------|------------]

                       p
[-------------|-------6-5---]
[-8-6---------|-8--6------8-]
[-----7-4-5-7-|-------------]
[-------------|-------------]
[-------------|-------------]
[-------------|-------------]

I can see something in that smile
In the way they play
They're passing down the line
Opening the tears
And the emptiness
No danger signs
features unrecognised until now

--------------------------------------------------------------------
01:02
VERSE 2
********
G  Bb      F
   So soon winter brings
Bb     F#    Ab
   The first fall of snow
G  Bb        F
   There are secret things
Bb    F#      Ab
   In all the whitest worlds

--------------------------------------------------------------------
01:18    
Repeat Verse 1 - play Section 1 guitar
***************
--------------------------------------------------------------------
01:46
Acoustic Guitar
****************
[-3-----3-----3-|-3-----3-----3-|--3-----3-----3-|-3-----3-----3-]
[---3-----3-----|---3-----3-----|----3-----3-----|---3-----3-----]
[-----5-----5---|-----5-----5---|------5-----5---|-----3-----3---]
[---------------|---------------|----------------|---------------]
[---------------|---------------|----------------|---------------]
[---------------|---------------|----------------|---------------]


[-5-----5-----5-|-5-----5-----5-]
[---6-----6-----|---6-----6-----]
[-----7-----7---|-----7-----7---]
[---------------|---------------]
[---------------|---------------]
[---------------|---------------]

Come in on the 2nd one
-------------------------
        Time enough              when    old     sensations
        Won't  remind            anymore
        unaware                of   all       the       children
|--------------------------------X4---------------------------------|

[-3-----3-----3---|-3-----3-----3-|-5-----5-----5---|-5-----5-----5-]
[---3-----3-----3-|---3-----3-----|---6-----6-----5-|---6-----6-----]
[-----5-----5-----|-----3-----3---|-----7-----7-----|-----7-----7---]
[-----------------|---------------|-----------------|---------------]
[-----------------|---------------|-----------------|---------------]
[-----------------|---------------|-----------------|---------------]

        Running    rings        without   a   care
        Joining in      their       games
|--------------------------------X2---------------------------------|

[-2-----2-----2---|-2-----2-----2-|-4-----4-----4---|-4-----4-----4-]
[---2-----2-----2-|---2-----2-----|---5-----5-----4-|---5-----5-----]
[-----4-----4-----|-----2-----2---|-----6-----6-----|-----6-----6---]
[-----------------|---------------|-----------------|---------------]
[-----------------|---------------|-----------------|---------------]
[-----------------|---------------|-----------------|---------------]

        When   I    hear       pale   horses   riding
        See  them   fly   as   they   go
|--------------------------------X2---------------------------------|

[-3-----3-----3---|-3-----3-----3-|-5-----5-----5---|-5-----5-----5-]
[---3-----3-----3-|---3-----3-----|---6-----6-----5-|---6-----6-----]
[-----5-----5-----|-----3-----3---|-----7-----7-----|-----7-----7---]
[-----------------|---------------|-----------------|---------------]
[-----------------|---------------|-----------------|---------------]
[-----------------|---------------|-----------------|---------------]

        Then   I   know         to free    the    reins
         Of        Unquiet          thoughts
|--------------------------------X2---------------------------------|

[-2-----2-----2---|-2-----2-----2-|-4-----4-----4---|-4-----4-----4-]
[---2-----2-----2-|---2-----2-----|---5-----5-----4-|---5-----5-----]
[-----4-----4-----|-----2-----2---|-----6-----6-----|-----6-----6---]
[-----------------|---------------|-----------------|---------------]
[-----------------|---------------|-----------------|---------------]
[-----------------|---------------|-----------------|---------------]

I don,t know if he does the whole barre chord, but its the G chord
  G   
[-15-]
[-15-]
[-16-]
[-17-]
[-17-]
[----]


--------------------------------------------------------------------
03:12
Keyboard
*********
03:19
Synth - G
******
--------------------------------------------------------------------
03:33                                                        
GUITAR SOLO 
************                                                     
[-------p----------------------------|-------p-------b---br----]  
[-12--12-11----11--11---p-----p------|-12--12-11----14--14--11-]  
[-----------13--------13-11-13-11----|-----------13------------] 
[---------------------------------13-|-------------------------]  
[------------------------------------|-------------------------]
[------------------------------------|-------------------------]


[-------p----------------------------|-------p-------b---br------s-]  
[-12--12-11----11--11---p-----p------|-12--12-11----14--14--12-11\-]  
[-----------13--------13-11-13-11----|-----------13----------------] 
[---------------------------------13-|-----------------------------]  
[------------------------------------|-----------------------------]
[------------------------------------|-----------------------------]

--------------------------------------------------------------------
03:46
Keyboard bit
--------------------------------------------------------------------
04:00
Fast Tricky Bit
    p  p                                             b r
[-14-12-11---p--p------------|---p------11---p------14--11----]
[----------14-12-11---p------|-12-11-14----12-11--------------]
[-------------------13-11----|-------------------13--------13-]
[-------------------------13-|--------------------------------]
[----------------------------|--------------------------------]
[----------------------------|--------------------------------]

                                             p
[-----------------------|---p------11-|----14-11------p------|---p------]
[-14----12--------------|-12-11-14----|-11-------11-14-11----|-12-11----]
[----11----------h---11-|-------------|-------------------11-|----------]
[----------13--11-13----|-------------|----------------------|-------13-]
[-----------------------|-------------|----------------------|----------]
[-----------------------|-------------|----------------------|----------]


[---h--p--------p----------------|-----------------------------]
[-11-14-11----14-11---h--p-----s-|-------------------s---------]
[-------------------11-12-11-10\-|-5-6-8--8-10-11--11\13-10----]
[----------13--------------------|--------------------------13-]
[--------------------------------|-----------------------------]
[--------------------------------|-----------------------------]

                                                  TRILL from 04:31 to 04:42
[----------------------|-------------------------|--h--p-h--p-h--p-p--h-p--]
[-------------11-------|---b-r------------8-9-10-|-9-10-9-10-9-10-9-10-9-10]
[-12-7-8--12-----10-12-|-12----8---h-------------|-------------------------]
[----------------------|----------8-10--8--------|-------------------------]
[----------------------|-------------------------|-------------------------]
[----------------------|-------------------------|-------------------------]

                             04:52
[-------------------------s-|-----------|--------|--------|--------|-----]
[-0-0-1--3-3-4--7-7-8--10-\-|-----------|--------|--------|--------|-----]
[---------------------------|-----------|--------|--------|--------|-----]
[---------------------------|---------5-|---5--5-|---5--5-|---5--5-|---5-]
[---------------------------|-3-1-0-----|--------|--------|--------|-----]
[---------------------------|-------3---|-3---3--|-3---3--|-3---3--|-3---]


--------------------------------------------------------------------
05:03
Picking guitar
***************
|-----------X4------------|

[------------|------------||------------]
[-8----7-----|-6----5-----||-6----5-----]
[---7----7---|---5----5---||---5----5---]
[----------7-|----------5-||----------5-]
[------------|------------||------------]
[------------|------------||------------]


--------------------------------------------------------------------
05:15
    h p               p p p               h p                p p p
[5-5-7-5-4-------2-|-5-3-2-0--p-p----|-5-5-7-5-4--------2-|-5-3-2-0--p-p---]
[----------5---5---|---------3-2-0-1-|------------5---5---|---------3-2-0--]
[------------4-----|-----------------|--------------4-----|---------------2]
[------------------|-----------------|--------------------|----------------]
[------------------|-----------------|--------------------|----------------]
[------------------|-----------------|--------------------|----------------]


--------------------------------------------------------------------
05:26
Picking guitar
***************
|-----------X4------------|

[------------|------------||------------]
[-8----7-----|-6----5-----||-6----5-----]
[---7----7---|---5----5---||---5----5---]
[----------7-|----------5-||----------5-]
[------------|------------||------------]
[------------|------------||------------]


--------------------------------------------------------------------
05:38
    h p               p p p               h p                p p p
[5-5-7-5-4-------2-|-5-3-2-0--p-p----|-5-5-7-5-4--------2-|-5-3-2-0--p-p---]
[----------5---5---|---------3-2-0-1-|------------5---5---|---------3-2-0--]
[------------4-----|-----------------|--------------4-----|---------------2]
[------------------|-----------------|--------------------|----------------]
[------------------|-----------------|--------------------|----------------]
[------------------|-----------------|--------------------|----------------]

     h p               p p p
[-5-5-7-5-4-------2-|-5-3-2-0--p-p--5-]
[-----------5---5---|---------3-2-0---]
[-------------4-----|-----------------]
[-------------------|-----------------]
[-------------------|-----------------]
[-------------------|-----------------]


--------------------------------------------------------------------
05:54
Strum Chords - listen to the way he strums it to get the rhythm.
*************
   F    G     F    G    Eb    F   Eb    F
[-----------------------------------------]
[-10---12----10---12----8----10---8----10-]
[-10---12----10---12----8----10---8----10-]
[-10---12----10---12----8----10---8----10-]
[-8----10----8----10----6----8----6----8--]
[-----------------------------------------]

--------------------------------------------------------------------
This part is the tapping, i don,t do tapping, and this is tricky so i hope
i can tab it out right. Sorry to tapper if this is not tabbed out correctly.
the first tap is a pulloff
TP = Tap with the right hand.    
P = Pulloff tap 
This first note is a pulloff tap, if that makes any sense.
 06:04           
[-------------------|---------------|---------------|---------------]
[---P-h-h-p---TP-p-p|-h-h-p---TP-p-p|-h-h-p---TP-p-p|-h-h-p---TP-p-p]
[--7-0-2-3-2-7--3-2-|0-2-3-2-7--3-2-|0-2-3-2-8--3-2-|0-2-3-2-8--3-2-]
[-------------------|---------------|---------------|---------------]
[-------------------|---------------|---------------|---------------]
[-------------------|---------------|---------------|---------------]


[---------------|---------------|----------------|--]
[-h-h-p---TP-p-p|-h-h-p---TP-p-p|-h-h-p----TP-p-p|--]
[0-2-3-2-9--3-2-|0-2-3-2-9--3-2-|0-2-3-2-10--3-2-|0-]
[---------------|---------------|----------------|--]
[---------------|---------------|----------------|--]
[---------------|---------------|-------------------]


[--------------------------------------------------------------------------]
[---TP-p-p----TP-p-p----TP-p-p----TP-p-p----TP-p-p----TP-p-p----TP-p-p-----]
[-10--0-2-3-10--0-2-3-10--0-2-3-10--0-2-3-10--0-2-3-10--0-2-3-10--0-2-3----]
[--------------------------------------------------------------------------]
[--------------------------------------------------------------------------]
[--------------------------------------------------------------------------]


[--------------------------------------------------------------------------]
[---TP-p-p----TP-p-p----TP-p-p----TP-p-p----TP-p-p----TP-p-p----TP-p-p-----]
[-12--0-3-5-12--0-3-5-12--0-3-5-12--0-3-5-12--0-3-5-12--0-3-5-12--0-3-5----]
[--------------------------------------------------------------------------]
[--------------------------------------------------------------------------]
[--------------------------------------------------------------------------]


[--------------------------------------------------------------------------]
[---TP-p-p----TP-p-p----TP-p-p----TP-p-p----TP-p-p----TP-p-p----TP-p-p-----]
[-14--0-5-7-14--0-5-7-14--0-5-7-14--0-5-7-14--0-5-7-14--0-5-7-14--0-5-7----]
[--------------------------------------------------------------------------]
[--------------------------------------------------------------------------]
[--------------------------------------------------------------------------]



[--------------------------------------------------------------------------]
[---TP-p-p-----TP-p-p----TP-p-p----TP-p-p----TP-p-p----TP-p-p----TP-p-p----]
[-15--0-7-8--15--0-7-8-15--0-7-8-15--0-7-8-15--0-7-8-15--0-7-8-15--0-7-8---]
[--------------------------------------------------------------------------]
[--------------------------------------------------------------------------]
[--------------------------------------------------------------------------]


[--------------------------------------------------------------------------]
[---TP-p--p-----TP-p--p-----TP-p--p-----TP-p--p-----TP-p--p-----TP-p--p----]
[-17--0-10-12-17--0-10-12-17--0-10-12-17--0-10-12-17--0-10-12-17--0-10-12--]
[--------------------------------------------------------------------------]
[--------------------------------------------------------------------------]
[--------------------------------------------------------------------------]

06:28                                                       p p 
[---------------------18-17---|------------|-----6-5-8-6-5-8-6-5--p-p----]
[---s-------------------------|--br------s-|---------------------8-6-5---]
[-10\19--19--19-19-19------19-|-19-17--17\-|-7-7-----------------------7-]
[-----------------------------|------------|-----------------------------]
[-----------------------------|------------|-----------------------------]
[-----------------------------|------------|-----------------------------]

                                                         |---Harmonics---|
[------|-------------|-br-----|-------------------------|-----------------]
[-br---|-br----------|-6------|----------------h-p-p-p--|-----------------]
[-7--5-|-5--3--3-3-3-|----3-2-|-2-3-2-5-3-2-3-3-5-3-2-0-|-12--7--5--7--12-]
[------|-------------|--------|-------------------------|-----------------]
[------|-------------|--------|-------------------------|-----------------]
[------|-------------|--------|-------------------------|-----------------]


[-------------------|---------|-----------------|---------|----------------]
[-------------------|--p------|--p----3---------|--p------|--p----3--------]
[----h---------h--4-|-4-2---5-|-5-4-5---5-4-2-4-|-4-2---5-|-5-4-5---5-4-2-4]
[3--3-5-3--h--3-5---|-----5---|-----------------|-----5---|----------------]
[---------3-5-------|---------|-----------------|---------|----------------]
[-------------------|---------|-----------------|---------|----------------]



[---------------------------]
[---------------------------]
[-5---2---4---5---2---4---5-]
[---------------------------]
[---------------------------]
[---------------------------]


This is an excellent IQ track, it pretty long, 
and is kinda hard to play in places. Let me know if i missed anything out.
Enjoy............
comments
print report bad tab
I want to post or [tab]
guest
You may want to rate the tab now too:
select rating
Please do not post tabs as comments. Select "correction" instead!