Oops, an error
Loading. Please wait.

Life Support Tab

by IQ
384 views 3 this week
no commentswrite comment
1 2 3 4 5
excellent!
x 5
add to favorites
launch autoscroll
font size
0
reset
how to read this tab
guitar tuner
Tab Pro tools
  • play this tab
  • loop segment
  • change instrument
  • show fretboard
  • metronome
×
Best way to learn
"Life Support"
Autoscroll
slow
fast
+/-
esc
set tempo
stop
Contributor
Difficulty
intermediate
                                          Artist - IQ
                                         *************
                                      Song - Life Support
                                     *********************
                                       Album - Frequency
                                      *******************
                                      Tabbed By - Ayreon77
                                     **********************



INTRO - Piano - Bm G D A 
******

Use Volume pedal or Vol On Guitar.
[----------------|------------------|-------]
[----------------|--------14----12--|-Words-]
[-------11----9--|--11--------------|-Come--]
[--9-------------|------------------|--In---]
[----------------|------------------|-------]
[----------------|------------------|-------]

------------------------------------------------------------------
VERSE 1
********
Bm        G           D             A
   When I think of it now that it's done
       Bm       G              D        A
How it might've gone without a place to belong
Bm       G             D          A    
   I can see we played into their hands
         Bm         G              D           A
And they picked our bones until we proved them wrong

------------------------------------------------------------------
CHORUS
********
B        E      A
    It's only a moment
    F#m         G           E           A      B
The minutes and hours, they fly from me now as then
     E          A
It's all in the detail
     G         F#m        E           A        Bm
I've been here before but still don't remember when

01:01
Use Volume pedal or Vol On Guitar.
[---------------------------------------]
[-------12-----14----------10-----------]
[--11----------------11---------9-------]
[------------------------------------9--]
[---------------------------------------]
[---------------------------------------]

------------------------------------------------------------------
VESRSE 2
*********
Bm       G             D           A         [-------------|---br------]
   As we stared in the face of the storm     [-------------|--14---12--]
        Bm        G            D        A    [--9----11----|-----------]
And the change began to gather over the bend [-------------|-----------]
Bm           G        D               A      [-------------|-----------]
   There was always a chance it would come   [-------------|-----------]
       Bm        G              D      A          
But if you can't make it happen nobody can              
                                                          

------------------------------------------------------------------
CHORUS                                                      01:40
********                                                    [-------------]
B       E       A                                           [-------------]
   It's all but forgotten                                   [-11----9-----]
    F#m         G              E            A        B      [-----------9-]
The minutes and hours, they're nothing that can't be bought [-------------]
     E          A                                           [-------------]
It's all in the detail
     G         F#m          E          A        Bm                         
Hold onto your head, you're living without your thoughts    
                                                           
                                                          
01:50
Use Volume pedal or Vol On Guitar.
[--------------------------------|-------------14--]
[--12----14---------10-----------|-------12--------]
[--------------11----------------|-----------------]
[------------------------9----12-|--11-------------]
[--------------------------------|-----------------]
[--------------------------------|-----------------]


02:13
Weird bit
Use Vol & Ad lib
[--19--19--19--19--|--------------]
[------------------|--12---14-15--]
[------------------|--------------]
[------------------|--------------]
[------------------|--------------]
[------------------|--------------]

------------------------------------------------------------------
This sounds like a Steve Hackett solo.
02:36
SOLO 1  He uses a vol on some notes, i,ll mark them with a * for what i think
******* he uses the vol. This would be better with a Vol pedal.

[---*--------*---*---br----s--|---*--------*---*-----10-12-13-]
[--12---*---11--12--12--11-\--|--12---*---11--12--14----------]
[------11---------------------|------11-----------------------]
[-----------------------------|-------------------------------]
[-----------------------------|-------------------------------]
[-----------------------------|-------------------------------]
                    
                     b                      *   b
[---*---*-s--|--13--13--12--|--13---*---*--13--13--12--|---br-----]
[--10--14-\--|--------------|------10--14--------------|--15--12--]
[------------|--------------|--------------------------|----------]
[------------|--------------|--------------------------|----------]
[------------|--------------|--------------------------|----------]
[------------|--------------|--------------------------|----------]


[--------s-------br----s--|------------------------------------------------]
[-----11-\--12--12--11-\--|-12------11--121212121212121212-1414141414141414]
[-11----------------------|-----11-----------------------------------------]
[-------------------------|------------------------------------------------]
[-------------------------|------------------------------------------------]
[-------------------------|------------------------------------------------]

                                                                         
[----------------------------------------------------s-]
[-15151515151515151515-171717171717171717171717-1818-\-]
[------------------------------------------------------]
[------------------------------------------------------]
[------------------------------------------------------]
[------------------------------------------------------]
              Slow reverse bend
                b  r                          b
[-------*--13--13-----12--|--13---*---*--13--13--12-----------------s------]
[---*--14-----------------|------10--14-------------13---s----h---10\14-12-]
[--14---------------------|----------------------------14\10-9-10----------]
[-------------------------|------------------------------------------------]
[-------------------------|------------------------------------------------]
[-------------------------|------------------------------------------------]

------------------------------------------------------------------
SYNTH SOLO - Bm E
***********
------------------------------------------------------------------
04:45
SOLO 2
*******                                        Union Bend
                                                  
[--------------------br----s--|----------------UB-UB-UB-UB--UB-s-]
[--12-------11--12--12--11-\--|--12-------11---12-14-15-17--18-\-]
[------11---------------------|------11--------14-16-17-19--20-\-]
[-----------------------------|----------------------------------]
[-----------------------------|----------------------------------]
[-----------------------------|----------------------------------]

                br                        b
[----------13--13--12--|--13---------13--13--12-------------------------]
[------14--------------|-----10--14-------------13------------10-14-12--]
[--14------------------|---------------------------14-10-9-10-----------]
[----------------------|------------------------------------------------]
[----------------------|------------------------------------------------]
[----------------------|------------------------------------------------]

              Slow reverse bend
[---------------b--r-----|-------------------br----b--r--]
[------11--12--12----11--|--12------11--12--12--11-------]
[--11--------------------|------11-----------------------]
[------------------------|-------------------------------]
[------------------------|-------------------------------]
[------------------------|-------------------------------]

------------------------------------------------------------------
Keyboard fade out
------------------------------------------------------------------

A cool tune. Enjoy...........
comments
print report bad tab
I want to post or [tab]
guest
You may want to rate the tab now too:
select rating
Please do not post tabs as comments. Select "correction" instead!