Oops, an error
Loading. Please wait.

Changed My Mind Tab

1,639 views 3 this week
no commentswrite comment
1 2 3 4 5
excellent!
x 3
add to favorites
launch autoscroll
font size
0
reset
how to read this tab
guitar tuner
Tab Pro tools
  • play this tab
  • loop segment
  • change instrument
  • show fretboard
  • metronome
×
Best way to learn
"Changed My Mind"
Autoscroll
slow
fast
+/-
esc
set tempo
stop
Contributor
Difficulty
intermediate
Song: Changed My Mind
Artist: Iration
Album: Time Bomb

Tabbed by zaprox913

Key:
X = chuck
~ = hold out the note
/ = slide
b = bend
v = vibrato
h = hammer-on
p = pull-off


Intro:
(0:13)
e|--3--3--3--3-----|
B|--5--5--3--3-----|
G|--5--5--4--4-----|
D|--5--5--5--5-----|
A|--3--3--5--5-----|
E|--------3--3-----|


Main riff:
(0:15)
e|--------------10-8---------------------|-------------10-8------------|
B|-12-12-12-12--------12-10------10--b12-|-12-12-12-------12-10--------|
G|---------------------------12----------|---------------------12--12~-|
D|---------------------------------------|-----------------------------|
A|---------------------------------------|-----------------------------|
E|---------------------------------------|-----------------------------|x2


Verse:
(0:37)
e|--3--3--3--3-----|
B|--5--5--3--3-----|
G|--5--5--4--4-----|
D|--5--5--5--5-----|
A|--3--3--5--5-----|
E|--------3--3-----|


e|--X--7--7--7--X--3--3--X--3--3--3------|
B|--X--8--8--8--X--5--5--X--3--3--3------|
G|--X--9--9--9--X--5--5--X--4--4--4------|
D|-----------------5--5--X--5--5--5------|
A|-----------------3--3--X--5--5--5------|
E|--------------------------3--3--3------|x4

*Use reggae upstrokes


Chorus:
(0:51)
e|--7--7--X--5--5--X--3--3--3--3--3--X--7--7--X--3--3--X--3--3--3--3--3-|
B|--8--8--X--7--7--X--5--5--5--5--5--X--8--8--X--5--5--X--3--3--3--3--3-|
G|--9--9--X--7--7--X--5--5--5--5--5--X--9--9--X--5--5--X--4--4--4--4--4-|
D|--9--9--X--7--7--X--5--5--5--5--5--X--9--9--X--5--5--X--5--5--5--5--5-|
A|--7--7--X--5--5--X--3--3--3--3--3--X--7--7--X--3--3--X--5--5--5--5--5-|
E|--------------------------------------------------------3--3--3--3--3-| x2

*Upstrokes


Main riff:
(1:03)
e|--------------10-8---------------------|-------------10-8------------|
B|-12-12-12-12--------12-10------10--b12-|-12-12-12-------12-10--------|
G|---------------------------12----------|---------------------12--12~-|
D|---------------------------------------|-----------------------------|
A|---------------------------------------|-----------------------------|
E|---------------------------------------|-----------------------------|x2


Verse:
(1:27)
e|--3--3--3--3-----|
B|--5--5--3--3-----|
G|--5--5--4--4-----|
D|--5--5--5--5-----|
A|--3--3--5--5-----|
E|--------3--3-----|


e|--X--7--7--7--X--3--3--X--3--3--3------|
B|--X--8--8--8--X--5--5--X--3--3--3------|
G|--X--9--9--9--X--5--5--X--4--4--4------|
D|-----------------5--5--X--5--5--5------|
A|-----------------3--3--X--5--5--5------|
E|--------------------------3--3--3------|x4


Chorus:
(1:41)
e|--7--7--X--5--5--X--3--3--3--3--3--X--7--7--X--3--3--X--3--3--3--3--3-|
B|--8--8--X--7--7--X--5--5--5--5--5--X--8--8--X--5--5--X--3--3--3--3--3-|
G|--9--9--X--7--7--X--5--5--5--5--5--X--9--9--X--5--5--X--4--4--4--4--4-|
D|--9--9--X--7--7--X--5--5--5--5--5--X--9--9--X--5--5--X--5--5--5--5--5-|
A|--7--7--X--5--5--X--3--3--3--3--3--X--7--7--X--3--3--X--5--5--5--5--5-|
E|--------------------------------------------------------3--3--3--3--3-| x4


Solo:
(2:17)
e|-----------------/10v--10h12--15p12--10v--10h12--15p12--15---|
B|--10b(12)----------------------------------------------------|
G|-------------------------------------------------------------|
D|-------------------------------------------------------------|
A|-------------------------------------------------------------|
E|-------------------------------------------------------------|

e|--/12---/15---/17---17h19p17---19/----|
B|--------------------------------------|
G|--------------------------------------|
D|--------------------------------------|
A|--------------------------------------|
E|--------------------------------------|


Chorus:
(2:31)
e|--7--7--X--5--5--X--3--3--3--3--3--X--7--7--X--3--3--X--3--3--3--3--3-|
B|--8--8--X--7--7--X--5--5--5--5--5--X--8--8--X--5--5--X--3--3--3--3--3-|
G|--9--9--X--7--7--X--5--5--5--5--5--X--9--9--X--5--5--X--4--4--4--4--4-|
D|--9--9--X--7--7--X--5--5--5--5--5--X--9--9--X--5--5--X--5--5--5--5--5-|
A|--7--7--X--5--5--X--3--3--3--3--3--X--7--7--X--3--3--X--5--5--5--5--5-|
E|--------------------------------------------------------3--3--3--3--3-| x4


Outro:
Main riff + Verse simultaneously from 2:57 to the end
comments
We did not receive enough feedback on this tab! Please rate:
print report bad tab
1 2 3 4 5
I want to post or [tab]
guest
You may want to rate the tab now too:
select rating
Please do not post tabs as comments. Select "correction" instead!