Oops, an error
Loading. Please wait.

Time Bomb Tab

version 1
version 1

Whole song

Interactive

44,558 views 135 this week
2 commentsread comments
1 2 3 4 5
accurate
x 13
add to favorites
launch autoscroll
font size
0
reset
how to read this tab
guitar tuner
Autoscroll
slow
fast
+/-
esc
set tempo
stop
Help us to improve Ultimate-Guitar.com Take our survey!
×
Difficulty
novice
Not 100% sure on the hammer-on/pull-off on the second part of the intro, but it sounds
enough. I also haven't included the solo yet, but I will try to add it once I transcribe
The strumming pattern from the chorus should be easy to replicate if you listen to the 
once or twice, it is just reggae-strums.


[intro]
              C        Em         D
e|------------3---------7---------5---------------------------------|
B|------------5---------8---------7---------------------------------|
G|------------5---------9---------7-----------(pause)---------------|  (x3)
D|------------5---------9---------7---------------------------------|
A|--------3-3-------7-7-------5-5-----------------------------------|
E|------------------------------------------------------------------|


e|------------3---------7---------5---------------------------------|
B|------------5---------8---------7-7-7h8p7-------------------------|
G|------------5---------9---------7---------------------------------|  (x5)
D|------------5---------9---------7---------------------------------|
A|--------3-3-------7-7-------5-5-----------------------------------|
E|------------------------------------------------------------------|

[verse] up strokes

	      C         Em          D         D
e|------------3--x-------7--x-------5--x------5---------------------|
B|------------5--x-------8--x-------7--x------7---------------------|
G|------------5--x-------9--x-------7--x------7---(let ring)--------|
D|------------5--x-------9--x-------7--x------7---------------------|
A|------------3--x-------7--x-------5--x------5---------------------|
E|------------------------------------------------------------------|

[pre/post chorus]

	     Bm         C
e|------------2---------3----------------------------|
B|------------3---------5----------------------------|
G|------------4---------5----------------------------|
D|------------4---------5----------------------------|
A|------------2---------3----------------------------|
E|---------------------------------------------------|


[chorus]
	    Em          C         D
e|-----------7----------3---------5------------------------------|
B|-----------8----------5---------7------------------------------|
G|-----------9----------5---------7------------------------------|
D|-----------9----------5---------7------------------------------|
A|-----------7----------3---------5------------------------------|
E|---------------------------------------------------------------|
Suggest correction
What's this?
You can suggest a correction to this tab. Community and Mods will review your correction and vote to approve or reject it.
comments
print report bad tab
2 comments total.
+1 reply
_Pintura_ 224 wrote on August 5 2011, 05:43 pm

I think the chorus chords should be C(x2),D,Em

0 reply
Chongo 175 wrote on November 12 2014, 04:31 pm

Let me help you with that intro

[intro]
[tab C Em7 D
e|------------8---------10--------5---------------------------------|
B|------------8---------8---------7---------------------------------|
G|------------9---------7---------7-----------(pause)---------------|
D|------------10-------9---------7----------------------------------|(x3)
A|----------10-------7---------5------------------------------------|
E|--------8---------------------------------------------------------|

C Em7 D
e|------------8---------10--------5---------------------------------|
B|------------8---------8---------7-7-7h8p7-------------------------|
G|------------9---------7---------7---------7\5------(pause)--------|
D|------------10-------9---------7----------------------------------|(x3)
A|----------10-------7---------5------------------------------------|
E|--------8---------------------------------------------------------|

guest
You may want to rate the tab now too:
select rating
Please do not post tabs as comments. Select "correction" instead!