Oops, an error
Loading. Please wait.

You Should Know tab

98 views 1 this week
no commentswrite comment
1 2 3 4 5
3 more votes to show rating
add to favorites
×
Save as Personal and add changes to this tab that will be seen only by you. Learn more ›
×
You can save this tab as Personal to edit and correct it or add notes. All changes will be seen only by you. Learn more »
launch autoscroll
font size
0
reset
how to read this tab
guitar tuner
edit
Autoscroll
slow
fast
+/-
esc
set tempo
stop
Author
Difficulty
You Should Know - Irene Conti

http://www.youtube.com/watch?v=DsI2pJ1njBI

Chords: C  E  F  G
        C  E  Fm G


Verse:

   You should know how strong..Time has changed the...Live, you should know
E|-------------------------------------------------------------------------------------------------|
B|--------------1-----------------------0-----------------------1-----------------------3----------|
G|--------0-----------0-----------1-----------1-----------2-----------2-----------4-----------4----|
D|-----2-----2-----2-----2-----2-----2-----2-----2-----------3-----3-----3-----------5-----5-----5-|
A|--3--------------------------------------------------3-----------------------5-------------------|
E|--------------------------0-----------------------1-----------------------3----------------------|



Pre-Chorus:

  What if I ask you if...   How can a man be brave...head on my shoulder    Cry since it's over
E|-----------------------------------------------------------------------------------------|
B|--------------1-----------------------0-----------------------1-----------------------1--|
G|--------0-----------0-----------1-----------1-----------2-----------2--------------1-----|
D|-----2-----2-----2-----2-----2-----2-----2-----2-----------3-----3-----3--------3--------|
A|--3--------------------------------------------------3-----------------------3-----------|
E|--------------------------0-----------------------1-----------------------1--------------|


Chorus:

  You should know what....look into their eyes.....life,     you know their lies
E|------------------------------------------------------------------------------------------------|
B|--------------1-----------------------0-----------------------1-----------------------1---------|
G|--------0-----------0-----------1-----------1-----------2-----------2--------------1------------|
D|-----2-----2-----2-----2-----2-----2-----2-----2-----------3-----3-----3--------3---------------|
A|--3--------------------------------------------------3-----------------------3------------------|
E|--------------------------0-----------------------1-----------------------1---------------------|


Bonus:

  Baby, life is a         song,       begin to     sing it and soon or    later you'll learn it
E|-----------------------------------------------------------------------------------------|
B|--------------1-----------------------0-----------------------1-----------------------1--|
G|--------0-----------0-----------1-----------1-----------2-----------2--------------1-----|
D|-----2-----2-----2-----2-----2-----2-----2-----2-----------3-----3-----3--------3--------|
A|--3--------------------------------------------------3-----------------------3-----------|
E|--------------------------0-----------------------1-----------------------1--------------|

            
            
Suggest correction
Creating personal tab
Creating personal tab
You can edit any tab online and save it as your Personal.

You can edit, replace or remove any tab part or add personal notes – all changes will be seen only by you.

Personal tabs can be accessed anytime from any device, even offline.
Learn more »
Give kudos to tab author, rate the tab!
1 2 3 4 5
comments
print report bad tab
guest
You may want to rate the tab now too:
select rating
Wanna post a correction for this tab? Suggest correction