Oops, an error
Loading. Please wait.

De Vina Esti Tu Bass Tab

by Iris
87 views 1 this week
no commentswrite comment
1 2 3 4 5
excellent!
x 3
add to favorites
launch autoscroll
font size
0
reset
guitar tuner
Autoscroll
slow
fast
+/-
esc
set tempo
stop
Help us to improve Ultimate-Guitar.com Take our survey!
×
Author
Difficulty
novice
-----------------------------------------------------------------------------
                             De vina esti tu - Iris
-----------------------------------------------------------------------------
Tabbed by: Andu Needle
E-mail: sulfur_in_my_lungs@yahoo.com

This is a band from my country, Romania. A rock band. And I thought I should tab some of 
their songs for people from Romania who are looking for tabs.

Basically, the bass comes in after the guitar:

Intro:

G|----------------------------------------------------------------------|
D|----------------------------------------------------------------------|
A|-22-------------------------------------------------------------------|
E|----33-55-77777-33-00-22222222----------------------------------------|(x2)

Verse:

G|----------------------------------------------------------------------|
D|----------------------------------------------------------------------|
A|-22222222-00000000----------------------------------------------------|
E|-------------------33333333-22222222----------------------------------|(x4)

Chorus:

G|----------------------------------------------------------------------|
D|----------------------------------------------------------------------|
A|-22-------------------------------------------------------------------|
E|----33-55-77777-33-00-22222222----------------------------------------|(x2)

Middle Part:

G|----------------------------------------------------------------------|
D|----------------------------------------------------------------------|
A|-22222222----------00000000-------------------------------------------|
E|----------33333333----------------------------------------------------|(x2)

Verse 2:

G|----------------------------------------------------------------------|
D|----------------------------------------------------------------------|
A|-22222222-00000000----------------------------------------------------|
E|-------------------33333333-22222222----------------------------------|(x2)

Chorus 2:


G|----------------------------------------------------------------------|
D|----------------------------------------------------------------------|
A|-22-------------------------------------------------------------------|
E|----33-55-77777-33-00-22222222----------------------------------------|(x4)

Bridge:


G|------------2-4--------------2-4------------2-4--------------2-4------|
D|-------22-4-------------22-4-----------22-4-------------22-4----------|
A|-22-55----------2222-55----------22-55----------2222-55---------------|
E|----------------------------------------------------------------------|

Solo:

G|----------------------------------------------------------------------|
D|----------------------------------------------------------------------|
A|-22-------------------------------------------------------------------|
E|----33-55-77777-33-00-22222222----------------------------------------|

G|----------------------------------------------------------------------|
D|----------------------------------------------------------------------|
A|-22-------------------------------------------------------------------|
E|----33-55-77777-33-00-22222222/14(x8)---------------------------------|

Last chorus:

G|----------------------------------------------------------------------|
D|----------------------------------------------------------------------|
A|-22-------------------------------------------------------------------|
E|----33-55-77777-33-00-22222222----------------------------------------|(x3)

G|----------------------------------------------------------------------|
D|----------------------------------------------------------------------|
A|-22-----------------------------------2~------------------------------|
E|----33-55-77777-33-00-22222222/14(x8)---------------------------------|

Enjoy my friends from Romania!
Suggest correction
Give kudos to tab author, rate the tab!
1 2 3 4 5
comments
print report bad tab
guest
You may want to rate the tab now too:
select rating
Please do not post tabs as comments. Select "correction" instead!