Oops, an error
Loading. Please wait.

In-A-Gadda-Da-Vida Tab

version 1
version 1

Interactive

185,547 views 264 this week
30 commentsread comments
1 2 3 4 5
x 58
add to favorites
launch autoscroll
font size
0
reset
how to read this tab
guitar tuner
Autoscroll
slow
fast
+/-
esc
set tempo
stop
Help us to improve Ultimate-Guitar.com Take our survey!
×
[Main Riff]

e|------------------------------|
B|------------------------------|
G|------------------------------|
D|--------3-2-------\7-6-5------|
A|---5-5-------3-5----------3---|
E|------------------------------|
   In-A-Gadda-Da-Vida, honey.......

e|--------------------------------------------|
B|--------------------------------------------|
G|--------------------------------------------|
D|-------------6-7-6-7-8-7-6-----7-6----------|
A|-5-7-8-7-8-------------------------8-7--4\5-|
E|--------------------------------------------|

e|---------------------------------|----------------------------------|
B|---------------------------------|----------------------------------|
G|---------------------------------|----------------------------------|
D|--5-4-3-2---2-3-4-5---5-4-3-2----|-2\7--7-6-5-4---4-5-6-7---7-6-5-4-|
A|---------------------------------|----------------------------------|
E|---------------------------------|----------------------------------|
    Oh, won't you.......


e|------------------------------------------------------|
B|---------------------------------------\10~~~~~~/-----|
G|---4~~--------------------------\10-------------------|
D|---4~~------------------\12---------------------------|
A|---2~~------------------------------------------------|
E|------------------------------------------------------|
         Please take my haaaaa-aaaaaaa-aaaaaaaaand!


************************************

| \  Slide down
| ~  Vibrato

************************************
Suggest correction
comments
print report bad tab
30 comments total. Showing first comments.
0 reply
balmy4coition 10 Jul 26, 2006 04:27 PM

sweet tab

0 reply
British Josh 112 Oct 13, 2006 09:04 PM

noice

0 reply
Braazzil! 10 Dec 08, 2006 10:45 PM

awesome posum

guest
You may want to rate the tab now too:
select rating
Wanna post a correction for this tab? Suggest correction