Oops, an error
Loading. Please wait.

In-A-Gadda-Da-Vida tab

version 5
version 5

Interactive

2,085 views 6 this week
1 commentread comment
1 2 3 4 5
1 last vote to show rating
add to favorites
×
Save as Personal and add changes to this tab that will be seen only by you. Learn more ›
×
You can save this tab as Personal to edit and correct it or add notes. All changes will be seen only by you. Learn more »
launch autoscroll
font size
0
reset
how to read this tab
guitar tuner
backing track
0:00
0:00
edit
Autoscroll
slow
fast
+/-
esc
set tempo
stop
Author
E|---------------|---------------|----------------|---------------| (x2)
B|---------------|---------------|----------------|---------------|
G|---------------|---2--1----0---|----------------|---2--1----0---|
D|--0-0-3-2---3--|---------------|--0-0-3-2----3--|---------------|
A|----------3----|-------------3-|----------3-----|-------------3-|
E|---------------|---------------|----------------|---------------|

B|---------------|---------------|----------------|---------------|
G|--x-2-2-2-2-2~~|~~----------0~~|---x-2-2-2-2-2~~|~~---------0~~~|
D|---------------|----0---3~~~---|----------------|----0---3~~----|
A|---------------|---------------|----------------|---------------|
E|---------------|---------------|----------------|---------------|

E|---------------|---------------|----------------|---------------|
B|---------------|---------------|-------------3~~|~~-------------|
G|--x-2-2-2-2-2~~|~~---------0~~~|--x-2-2-2-0-----|------------0~~|
D|---------------|----0---3~~----|------------3---|-----0-0-3~----|
A|---------------|---------------|----------------|---------------|
E|---------------|---------------|----------------|---------------|

E|---------------|---------------|----------------|---------------|
B|---------------|---------------|----------------|---------------|
G|---------1-2-1-|2-3-2-1-2-1----|-0-----0-0------|---------------|
D|0-2-3-2-3------|------------3-2|---3-0-----4-2-3|-2---0-2--2-3-4|
A|---------------|---------------|----------------|---2-----------|
E|---------------|---------------|----------------|---------------|

E|---------------|---------------|----------------|---------------|
B|---------------|---------------|----------------|---------------|
G|-0------0-0----|---------------|-2-0---2---2-1-0|------------0-1|
D|---3-0------4-3|-2---0-2--2-3-4|-----2----------|-4---2-4--4----|
A|---------------|---2-----------|----------------|---4-----------|
E|---------------|---------------|----------------|---------------|

E|---------------|---------------|----------------|-7---6-7-6-(6)-|
B|---------------|---------------|---4-----7------|---------------|
G|-2-0---2--2-1-0|---------------|----------------|---------------|
D|-----2---------|-4---2-4-------|----------------|---------------|
A|---------------|---4-----------|----------------|---------------|
E|---------------|---------------|----------------|---------------|

E|---------------|---------------|----------------|---------------|
B|-------6---5---|---2-----3-----|----------------|---------------|
G|-7-------------|---------------|----------------|---2--1----0---|
D|---------------|---------------|--0-0-3-2---0---|---------------|
A|---------------|---------------|----------3-----|-------------3-|
E|---------------|---------------|----------------|---------------|

E|---------------|---------------|  repeat to beginning of song, 
B|---------------|---------------|  dont replay the intro. (x2)
G|---------------|---2--1----0---|
D|--0-0-3-2---0--|-------------3-|
A|----------3----|---------------|
E|---------------|---------------|

   2nd ending
E|---------------|----------------|---------------|----------------|
B|---------------|----------------|---------------|----------------|
G|---2--1----0---|----------------|---2-------0---|----------------|
D|-------------3-|--0-0-3-2---0---|-------------3-|--0-0-3-2---0---|
A|---------------|----------3-----|---------------|----------3-----|
E|---------------|----------------|---------------|----------------|

E|---------------| drums play for |---------------|----------------|repeat
B|---------------| four measures  |---------------|----------------|to after
G|---2--1----0---|----------------|---------------|----------------|drums
D|-------------3-|----------------|--0-0-3-2---0--|----------------| (x2)
A|---------------|----------------|----------3----|----------------|
E|---------------|----------------|---------------|----------------|

E|---------------|----------------|   i hope you enjoy it, it was my 
B|---------------|----------------|   1st so if i messed up let me know
G|---------------|----------------|   and ill fix it... ENJOY
D|---------------|--0-0-3-2---0---|
A|---------------|----------3-----|
E|---------------|----------------|

Suggest correction
Creating personal tab
Creating personal tab
You can edit any tab online and save it as your Personal.

You can edit, replace or remove any tab part or add personal notes – all changes will be seen only by you.

Personal tabs can be accessed anytime from any device, even offline.
Learn more »
Give kudos to tab author, rate the tab!
1 2 3 4 5
comments
print report bad tab
1 comment total.
0 reply
geetaraddict 16 Dec 09, 2008 03:52 PM

hey this sounds pretty good. only thing is it should be a 5 on da A string in the intro not an open D

guest
You may want to rate the tab now too:
select rating
Wanna post a correction for this tab? Suggest correction