Oops, an error
Loading. Please wait.

Unconscious Power bass

version 1
version 1

Whole song

Interactive

199 views 1 this week
no commentswrite comment
1 2 3 4 5
1 last vote to show rating
add to favorites
×
Save as Personal and add changes to this tab that will be seen only by you. Learn more ›
×
You can save this tab as Personal to edit and correct it or add notes. All changes will be seen only by you. Learn more »
launch autoscroll
font size
0
reset
guitar tuner
edit
Autoscroll
slow
fast
+/-
esc
set tempo
stop
Song Title: "Unconscious Power"
Artist: Iron Butterfly
Album: Heavy  1968
Key of E
Standard tuning
Original recording bassist: Jerry Penrod

Transcribed by: Hunter Maxwell 2015 

YouTube: https://youtu.be/3QB8Ic8SWlo 


[Intro]

G|------------------------------------7-h-9-7-h-9-7-h-9-7-h-9------|
D|-------9-12-9---------------2---5--------------------------------|
A|-10-12--------12-10-----------2---5------------------------------|
E|----------------------0-3-4--------------------------------------|


[Verse] (play single note or variations on last B note)

G|----------------------------------------------------------|
D|-------2---5-------------------------2---5----------------|
A|---------2---5--3-0-2-2-2--------------2---5-3-0--0-1-2---|
E|-0-3-4-------------------------0-3-4----------------------|


[Chorus]

G|-----------------|--------------------|-------------------------|----------------------|
D|-7---5-4---------|-------------7-9-10-|-s12---------12----12-11-|-10-9-----------10----|
A|---------7-5-4---|----7-8-9-10--------|--------9-12----12-------|------12---7-10----10-|
E|---------------5-|-s8-----------------|-----10------------------|---------8------------|


G|-------------------|----------------------|------------------|-------|
D|----------9--------|-7h9--7h9--7h9--7h9---|---7h9----------7-|-------|
A|-7-7-10-7---7------|--------------------7h|-9----------7-9---|-------|
E|--------------10-7-|----------------------|-------7-10-------|-0-----|


[Guitar Solo]

G|---------------------------------------------------------------|
D|---------------------------------------------------------------|
A|-7-7-7-7-7-7-7-7-5-5-5-5-5-5-5-5---7-7---7-7---5-5-5-5-5-5-5-5-|
E|---------------------------------0-----0-----0-----------------|


G|-----------------------------------------9-11--------9-9---9-----7-7---7-7--|
D|---------7-9-7------------------------12------12-------------9--------------|
A|--7-9-10-------10---9-10-9-h-10-9------------------7-----7-----5-----5------|
E|----------------------------------10----------------------------------------|
  


We all want to prepare you
The unbelievable is going to happen
It will linger in your mind forever
Let this carry you wherever - wherever.

Triggering the unconscious power inside

Removing all your inhibitions
Releasing complete freedom of thought
Sensations of every sense will prevail
With this you will see every thing.

Triggering the unconscious power inside

Triggering the unconscious power inside

I say to you
Nothin' for now.
For now
We know all,
We know all,
We know all,
We know all

            
            
Suggest correction
Creating personal tab
Creating personal tab
You can edit any tab online and save it as your Personal.

You can edit, replace or remove any tab part or add personal notes – all changes will be seen only by you.

Personal tabs can be accessed anytime from any device, even offline.
Learn more »
Give kudos to tab author, rate the tab!
1 2 3 4 5
comments
print report bad tab
guest
You may want to rate the tab now too:
select rating
Wanna post a correction for this tab? Suggest correction