Oops, an error
Loading. Please wait.

Bogus Journey tab

82 views 9 this week
no commentswrite comment
1 2 3 4 5
2 more votes to show rating
add to favorites
×
Save as Personal and add changes to this tab that will be seen only by you. Learn more ›
×
You can save this tab as Personal to edit and correct it or add notes. All changes will be seen only by you. Learn more »
launch autoscroll
font size
0
reset
how to read this tab
guitar tuner
edit
Autoscroll
slow
fast
+/-
esc
set tempo
stop
About this tab version
Includes chords, lyrics, and all lead lines. Was this info helpful? Yes No
Band: Iron Chic           
Song: Bogus Journey       
Album: The Constant One   
Label: Bridge Nine        

[Lead Guitar Intro] 
(0:00)
e|-0-0-0-0-0-0-0-0-0--0--0--0---0-0-0-0----0-0-0-0-0-0-0-0-0---0-0-0-0-------|
B|-9-9-9-7-7-7-5-5-5-/12-12-12-\9-9-9-9----9-9-9-7-7-7-5-5-5-/-7-7-7-7-------|
G|---------------------------------------------------------------------------|
D|---------------------------------------------------------------------------| (x2)
A|---------------------------------------------------------------------------|
E|---------------------------------------------------------------------------|

[Intro Rhythm] 
(0:00)
e|---------------------------------------------------------------------------|
B|---------------------------------------------------------------------------|
G|-1~-~-~-~-~-~-~-~-1--------------------------------------------------------|
D|-2~-~-~-~-~-~-~-~-2--------------------------------------------------------|
A|-2~-~-~-~-~-~-~-~-2--------------------------------------------------------|
E|-0~-~-~-~-~-~-~-~-0----Pick Slide-/-/-/-/-/-/-/-/--------------------------|

[Lead Guitar Intro: 0:11]
e|-0-0-0-0-0-0-0-0-0--0--0--0---0-0-0-0----0-0-0-0-0-0-0-0-0---0-0-0-0-------|
B|-9-9-9-7-7-7-5-5-5-/12-12-12-\9-9-9-9----9-9-9-7-7-7-5-5-5-/-7-7-7-7-------|
G|---------------------------------------------------------------------------| (x2)
D|---------------------------------------------------------------------------|
A|---------------------------------------------------------------------------|
E|---------------------------------------------------------------------------|

[Lead Guitar Intro: 0:22]
e|-0-0-0-0-0-0-0-0-0-0-0-0-0-0-0-0---0-0-0-0-0-0-0-0-0-0-0-0-----------------|
B|-9-9-9-7-7-7-9-9-9-7-7-7-5-5-5-5---9-9-9-7-7-7-5-5-5-5-5-7-----------------|
G|---------------------------------------------------------------------------| (x1)
D|---------------------------------------------------------------------------|
A|---------------------------------------------------------------------------|
E|---------------------------------------------------------------------------|

[Lead Guitar Intro: 0:28]
e|-0-0-0-0-0-0-0-0-0--0--0--0---0-0-0-0----0-0-0-0-0-0-0-0-0---0-0-0-0-------|
B|-9-9-9-7-7-7-5-5-5-/12-12-12-\9-9-9-9----9-9-9-7-7-7-5-5-5-/-7-7-7-7-------|
G|---------------------------------------------------------------------------| (x1)
D|---------------------------------------------------------------------------|
A|---------------------------------------------------------------------------|
E|---------------------------------------------------------------------------|

[Lead Guitar Intro: 0:33]
e|-0-0-0-0-0-0-0-0~-~-~------------------------------------------------------|
B|-9-9-9-9-9-9-9-9~-~-~------------------------------------------------------|
G|---------------------------------------------------------------------------|
D|---------------------------------------------------------------------------| (x1)
A|---------------------------------------------------------------------------|
E|---------------------------------------------------------------------------|

[Rhythm Pre-Verse: 0:11]
e|---------------------------------------------------------------------------|
B|-----------------5-5-5-5-5-5-5-5-------------------------------------------|
G|-1-1-1-1-1-1-1-1-6-6-6-6-6-6-6-6-6-6-6-6-6-6-6-6-6-6-6-6-5-5-6-6-----------|
D|-2-2-2-2-2-2-2-2-6-6-6-6-6-6-6-6-7-7-7-7-7-7-7-7-7-7-7-7-6-6-7-7-----------| (x4)
A|-2-2-2-2-2-2-2-2-4-4-4-4-4-4-4-4-7-7-7-7-7-7-7-7-7-7-7-7-6-6-7-7-----------|
E|-0-0-0-0-0-0-0-0-----------------5-5-5-5-5-5-5-5-5-5-5-5-4-4-5-5-----------|

E
It's all a matter of entropy
G#m
While I break apart entirely
A
What ever might be left of me
A
Might mean something to someone
E
Now I'm all out of energy
G#m
My mouth can't be coaxed to speak
A
When you've fucked up at everything
A
You start thinking that's how it should be

[Lead Guitar Intro] 
(0:00)
e|-0-0-0-0-0-0-0-0-0--0--0--0---0-0-0-0----0-0-0-0-0-0-0-0-0---0-0-0-0-------|
B|-9-9-9-7-7-7-5-5-5-/12-12-12-\9-9-9-9----9-9-9-7-7-7-5-5-5-/-7-7-7-7-------|
G|---------------------------------------------------------------------------|
D|---------------------------------------------------------------------------| (x2)
A|---------------------------------------------------------------------------|
E|---------------------------------------------------------------------------|

[Intro Rhythm] 
(0:00)
e|---------------------------------------------------------------------------|
B|---------------------------------------------------------------------------|
G|-1~-~-~-~-~-~-~-~-1--------------------------------------------------------|
D|-2~-~-~-~-~-~-~-~-2--------------------------------------------------------|
A|-2~-~-~-~-~-~-~-~-2--------------------------------------------------------|
E|-0~-~-~-~-~-~-~-~-0----Pick Slide-/-/-/-/-/-/-/-/--------------------------|

[Lead Guitar Intro: 0:11]
e|-0-0-0-0-0-0-0-0-0--0--0--0---0-0-0-0----0-0-0-0-0-0-0-0-0---0-0-0-0-------|
B|-9-9-9-7-7-7-5-5-5-/12-12-12-\9-9-9-9----9-9-9-7-7-7-5-5-5-/-7-7-7-7-------|
G|---------------------------------------------------------------------------| (x2)
D|---------------------------------------------------------------------------|
A|---------------------------------------------------------------------------|
E|---------------------------------------------------------------------------|

[Lead Guitar Intro: 0:22]
e|-0-0-0-0-0-0-0-0-0-0-0-0-0-0-0-0---0-0-0-0-0-0-0-0-0-0-0-0-----------------|
B|-9-9-9-7-7-7-9-9-9-7-7-7-5-5-5-5---9-9-9-7-7-7-5-5-5-5-5-7-----------------|
G|---------------------------------------------------------------------------| (x1)
D|---------------------------------------------------------------------------|
A|---------------------------------------------------------------------------|
E|---------------------------------------------------------------------------|

[Lead Guitar Intro: 0:28]
e|-0-0-0-0-0-0-0-0-0--0--0--0---0-0-0-0----0-0-0-0-0-0-0-0-0---0-0-0-0-------|
B|-9-9-9-7-7-7-5-5-5-/12-12-12-\9-9-9-9----9-9-9-7-7-7-5-5-5-/-7-7-7-7-------|
G|---------------------------------------------------------------------------| (x1)
D|---------------------------------------------------------------------------|
A|---------------------------------------------------------------------------|
E|---------------------------------------------------------------------------|

[Lead Guitar Intro: 0:33]
e|-0-0-0-0-0-0-0-0~-~-~------------------------------------------------------|
B|-9-9-9-9-9-9-9-9~-~-~------------------------------------------------------|
G|---------------------------------------------------------------------------|
D|---------------------------------------------------------------------------| (x1)
A|---------------------------------------------------------------------------|
E|---------------------------------------------------------------------------|

E
Of all the possibilities
G#m
In infinite realities
A
This one eventuality is something that we share
E
Across a hundred million miles of space
G#m
The right time and the perfect place
A
A burning hot piece of fate
A
Has struck my chest and left me breathless 

C#m        A
A tiny part of an endless place
E
So much space
                                      A
It takes all of us just to hold it up
C#m        A 
A tiny mark on an endless page
E                                    A
We leave our names and the rest just turns to dust

[Lead Guitar Intro]  
(0:00)
e|-0-0-0-0-0-0-0-0-0--0--0--0---0-0-0-0----0-0-0-0-0-0-0-0-0---0-0-0-0-------|
B|-9-9-9-7-7-7-5-5-5-/12-12-12-\9-9-9-9----9-9-9-7-7-7-5-5-5-/-7-7-7-7-------|
G|---------------------------------------------------------------------------|
D|---------------------------------------------------------------------------| (x2)
A|---------------------------------------------------------------------------|
E|---------------------------------------------------------------------------|

[Intro Rhythm] 
(0:00)
e|---------------------------------------------------------------------------|
B|---------------------------------------------------------------------------|
G|-1~-~-~-~-~-~-~-~-1--------------------------------------------------------|
D|-2~-~-~-~-~-~-~-~-2--------------------------------------------------------|
A|-2~-~-~-~-~-~-~-~-2--------------------------------------------------------|
E|-0~-~-~-~-~-~-~-~-0----Pick Slide-/-/-/-/-/-/-/-/--------------------------|

[Lead Guitar Intro: 0:11]
e|-0-0-0-0-0-0-0-0-0--0--0--0---0-0-0-0----0-0-0-0-0-0-0-0-0---0-0-0-0-------|
B|-9-9-9-7-7-7-5-5-5-/12-12-12-\9-9-9-9----9-9-9-7-7-7-5-5-5-/-7-7-7-7-------|
G|---------------------------------------------------------------------------| (x2)
D|---------------------------------------------------------------------------|
A|---------------------------------------------------------------------------|
E|---------------------------------------------------------------------------|

[Lead Guitar Intro: 0:22]
e|-0-0-0-0-0-0-0-0-0-0-0-0-0-0-0-0---0-0-0-0-0-0-0-0-0-0-0-0-----------------|
B|-9-9-9-7-7-7-9-9-9-7-7-7-5-5-5-5---9-9-9-7-7-7-5-5-5-5-5-7-----------------|
G|---------------------------------------------------------------------------| (x1)
D|---------------------------------------------------------------------------|
A|---------------------------------------------------------------------------|
E|---------------------------------------------------------------------------|

[Lead Guitar Intro: 0:28]
e|-0-0-0-0-0-0-0-0-0--0--0--0---0-0-0-0----0-0-0-0-0-0-0-0-0---0-0-0-0-------|
B|-9-9-9-7-7-7-5-5-5-/12-12-12-\9-9-9-9----9-9-9-7-7-7-5-5-5-/-7-7-7-7-------|
G|---------------------------------------------------------------------------| (x1)
D|---------------------------------------------------------------------------|
A|---------------------------------------------------------------------------|
E|---------------------------------------------------------------------------|

[Lead Guitar Intro: 0:33]
e|-0-0-0-0-0-0-0-0~-~-~------------------------------------------------------|
B|-9-9-9-9-9-9-9-9~-~-~------------------------------------------------------|
G|---------------------------------------------------------------------------|
D|---------------------------------------------------------------------------| (x1)
A|---------------------------------------------------------------------------|
E|---------------------------------------------------------------------------|

E          G#M                 A
Now we're trapped in an endless maze

[Lead]
e|-0-0-0-0--0-0-0-0--0-0-0-0-0-0-0-0-----------------------------------------|
B|-9-9-9-9--7-7-7-7--5-5-5-5-5-5-5-5-----------------------------------------|
G|---------------------------------------------------------------------------|
D|---------------------------------------------------------------------------|
A|---------------------------------------------------------------------------|
E|---------------------------------------------------------------------------|

[SOLO RHYTHM CHORDS]
C#m A E E
C#m A E A
C#m A E E
C#m A E A

[Solo Lead]
e|---------------------------------------------------------------------------|
B|---------------------------------------------------------------------------|
G|-4-4-4-6-6-6-4-4-4-----------------4-4-4-6-6-6-4-4-4-----------------------|
D|-------------------6-6-6---6-4-----------------------6-6-6~-~-~------------|
A|-------------------------------7-------------------------------------------|
E|---------------------------------------------------------------------------|

e|---------------------------------------------------------------------------|
B|-----------------------------------------------------7-7-7^-7^-------------|
G|-4-4-4-6-6-6-4-4-4-----------------4-4-4-6-6-6-4-4-4-----------------------|
D|-------------------6-6-6---6-4---------------------------------------------|
A|-------------------------------7-------------------------------------------|
E|---------------------------------------------------------------------------|

e|--0--0--0--0--0--0--0--0--0--0--0--0--0--0--0--0---------------------------|
B|--7^-7^-7^-7^-7^-7^-7^-7^-7^-7^-7^-7^-7^-7^-7^-7^--------------------------|
G|---------------------------------------------------------------------------|
D|---------------------------------------------------------------------------|
A|---------------------------------------------------------------------------|
E|---------------------------------------------------------------------------|

e|--0--0--0--0--0--0--0--0--0--0--0--0--0--0--0--0---------------------------|
B|--7^-7^-7^-7^-7^-7^-7^-7^-7^-7^-7--7--7--7^-7^-7^--------------------------|
G|---------------------------------------------------------------------------|
D|---------------------------------------------------------------------------|
A|---------------------------------------------------------------------------|
E|---------------------------------------------------------------------------|


C#m        A
A tiny part of an endless place
E
So much space
                                      A
It takes all of us just to hold it up
C#m        A 
A tiny mark on an endless page
E                                    A
We leave our names and the rest just turns to dust

E C#m A A

E
A tiny part
C#m
So much space
A
A tiny mark
A
Where we left our names
E
An endless pace
C#m
It takes everyone
A
Just to hold it up
A
Who'll find what's left of us?



************************************

| /  Slide up
| \  Slide down
| ~  Vibrato
| Pick Slide 
| ^  

************************************

            
            
Suggest correction
Creating personal tab
Creating personal tab
You can edit any tab online and save it as your Personal.

You can edit, replace or remove any tab part or add personal notes – all changes will be seen only by you.

Personal tabs can be accessed anytime from any device, even offline.
Learn more »
Give kudos to tab author, rate the tab!
1 2 3 4 5
comments
print report bad tab
guest
You may want to rate the tab now too:
select rating
Wanna post a correction for this tab? Suggest correction