Oops, an error
Loading. Please wait.

Cutesy Monster Man Tab

4,503 views 15 this week
no commentswrite comment
1 2 3 4 5
excellent!
x 6
add to favorites
launch autoscroll
font size
0
reset
how to read this tab
guitar tuner
Tab Pro tools
  • play this tab
  • loop segment
  • change instrument
  • show fretboard
  • metronome
Autoscroll
slow
fast
+/-
esc
set tempo
stop
Contributor
-----------------------------------------------------------------------------
                             CUTESY MONSTER MAN - Iron Chic
-----------------------------------------------------------------------------
Tabbed by: Mean Mr Mustard
Email: Gotchristo@comcast.net

Tuning: Standard

Okay so this song is pretty simple. Most of leads are based around those first three 
notes, so if I didn't include something, you should be able to figure it out by playing 
around with what I have.


 INTRO PT. I
e|-------3---------------|--|------3-----3----3------|--|------------------|
B|---5-------------5-----|--|---5-----5-----5----5---|--|-5-5-5-5-5-5-5-5--|
G|-5-------------5-----5-|x2|-5----------------------|x2|--5-5-5-5-5-5-5-5-|
D|-----------------------|--|------------------------|--|------------------|
A|-----------------------|--|------------------------|--|------------------|
E|-----------------------|--|------------------------|--|------------------|
 |
e|-----------------------|--|-------------------------|--|-----------------|
B|-----------------------|--|-------------------------|--|-----------------|
G|-5--~~~~~~~~-----------|--|-------------------------|x2|-5---------------|
D|-5--~~~~~~~~-----------|--|-5-5-5-5-5-5-5-5-5-5-5-5-|--|-5---------------|
A|-3--~~~~~~~~-----------|--|-3-3-3-3-3-3-3-3-3-3-3-3-|--|-3---------------|
E|-----------------------|--|-------------------------|--|-----------------|
                              pm. . . . . . . . . . .

  INTRO PT. II
e|---------------------------------|---------------------------------|
B|-5-5-5-3-3-3-5-5-5-3-3-3-5-5-3-3-|-5-5-5-3-3-3-5-5-5-3-3-3-5-5-3-3-|
G|-5-5-5-5-5-5-5-5-5-5-5-5-5-5-5-5-|-5-5-5-5-5-5-5-5-5-5-5-5-5-5-5-5-|
D|---------------------------------|---------------------------------|
A|---------------------------------|---------------------------------|
E|---------------------------------|---------------------------------|
 |
e|---------------------------------|---------------------------------|
B|---------------------------------|---------------------------------|
G|-5-5-5-5-5-5-5-5-5-5-5-5-5-5-5-5-|---------------------------------|
D|-5-5-5-5-5-5-5-5-5-5-5-5-5-5-5-5-|-5-5-5-5-5-5-5-5-5-5-5-5-5-5-5-5-|
A|-3-3-3-3-3-3-3-3-3-3-3-3-3-3-3-3-|-5-5-5-5-5-5-5-5-5-5-5-5-5-5-5-5-|
E|---------------------------------|-3-3-3-3-3-3-3-3-3-3-3-3-3-3-3-3-|

e|---------------------------------|---------------------------------|
B|-5-5-5-3-3-3-5-5-5-3-3-3-5-5-3-3-|-5-5-5-5-5-5-----5h3---5h3-------|
G|-5-5-5-5-5-5-5-5-5-5-5-5-5-5-5-5-|-5-5-5-5-5-5-5-5----5-----5------|
D|---------------------------------|---------------------------------|
A|---------------------------------|---------------------------------|
E|---------------------------------|---------------------------------|
 |
e|---------------------------------|---------------------------------|
B|---------------------------------|---------------------------------|
G|---------------------------------|---------------------------------|
D|-3-3-3-3-3-3-3-3-3-3-3-3-3-3-3-3-|-5-5-5-5-5-5-5-5-5-5-5-5-5-5-5-5-|
A|-3-3-3-3-3-3-3-3-3-3-3-3-3-3-3-3-|-5-5-5-5-5-5-5-5-5-5-5-5-5-5-5-5-|
E|-1-1-1-1-1-1-1-1-1-1-1-1-1-1-1-1-|-3-3-3-3-3-3-3-3-3-3-3-3-3-3-3-3-|


VERSE GUITAR I (x2)
e|-------------------------------|-------------------------------|
B|-------------------------------|-------------------------------|
G|-------------------------------|-------------------------------|
D|-5-5-5-5-5-5-5-5-5-5-5-5-5-5-5-|-------------------------------|
A|-3-3-3-3-3-3-3-3-3-3-3-3-3-3-3-|-5-5-5-5-5-5-5-5-5-5-5-5-5-5-5-|
E|-------------------------------|-3-3-3-3-3-3-3-3-3-3-3-3-3-3-3-|
  pm throughout
e|---------------------------------|---------------------------------|
B|---------------------------------|---------------------------------|
G|---------------------------------|---------------------------------|
D|---------------------------------|---------------------------------|
A|-7-7-7-7-7-7-7-7-7-7-7-7-7-7-7-7-|-3-3-3-3-3-3-3-3-3-3-3-3-3-3-3-3-|
E|-5-5-5-5-5-5-5-5-5-5-5-5-5-5-5-5-|-1-1-1-1-1-1-1-1-1-1-1-1-1-1-1-1-|
  pm throughout


VERSE GUITAR II  (x8)
e|-----3-----3------3-------|
B|--5-----5-----5-------5---|
G|-5------------------------|
D|--------------------------|
A|--------------------------|
E|--------------------------|


Now play the intro again, and then the verse again, but with this lead:
 (x4)                    (x2)
e|---------------------||-----3-------------|
B|-5----5----5----5----||--5--------5-------|
G|--5-5--5-5--5-5--5-5-||-5--------5---5----|
D|---------------------||-------------------|
A|---------------------||-------------------|
E|---------------------||-------------------|
    pm.  . .  . .  . .

And an extra bar of the F5



 CHORUS GUITAR I  (x2)
e|---------------------------------|---------------------------------|
B|---------------------------------|---------------------------------|
G|-5-5-5-5-5-5-5-5-----------------|---------------------------------|
D|-5-5-5-5-5-5-5-5-5-5-5-5-5-5-5-5-|-3-3-3-3-3-3-3-3-3-3-3-3-3-3-3-3-|
A|-3-3-3-3-3-3-3-3-5-5-5-5-5-5-5-5-|-3-3-3-3-3-3-3-3-3-3-3-3-3-3-3-3-|
E|-----------------3-3-3-3-3-3-3-3-|-1-1-1-1-1-1-1-1-1-1-1-1-1-1-1-1-|
          (x1)
e|---------------------------------|---------------------------------|
B|---------------------------------|---------------------------------|
G|-5-5-5-5-5-5-5-5-----------------|---------------------------------|
D|-5-5-5-5-5-5-5-5-5-5-5-5-5-5-5-5-|-7-7-7-7-7-7-7-7-3-3-3-3-3-3-3-3-|
A|-3-3-3-3-3-3-3-3-5-5-5-5-5-5-5-5-|-7-7-7-7-7-7-7-7-3-3-3-3-3-3-3-3-|
E|-----------------3-3-3-3-3-3-3-3-|-5-5-5-5-5-5-5-5-1-1-1-1-1-1-1-1-|
         (x2)
e|---------------------------------|---------------------------------|
B|---------------------------------|---------------------------------|
G|-5-5-5-5-5-5-5-5-----------------|---------------------------------|
D|-5-5-5-5-5-5-5-5-5-5-5-5-5-5-5-5-|-3-3-3-3-3-3-3-3-3-3-3-3-3-3-3-3-|
A|-3-3-3-3-3-3-3-3-5-5-5-5-5-5-5-5-|-3-3-3-3-3-3-3-3-3-3-3-3-3-3-3-3-|
E|-----------------3-3-3-3-3-3-3-3-|-1-1-1-1-1-1-1-1-1-1-1-1-1-1-1-1-|

CHORUS GUITAR II  (x8)
e|-----3-----3------3-------|
B|--5-----5-----5-------5---|
G|-5------------------------|
D|--------------------------|
A|--------------------------|
E|--------------------------|




  BRIDGE:  (4)
e|---------------------------------|---------------------------------|
B|---------------------------------|---------------------------------|
G|-5-5-5-5-5-5-5-5-5-5-5-5-5-5-5-5-|---------------------------------|
D|-5-5-5-5-5-5-5-5-5-5-5-5-5-5-5-5-|-5-5-5-5-5-5-5-5-5-5-5-5-5-5-5-5-|
A|-3-3-3-3-3-3-3-3-3-3-3-3-3-3-3-3-|-5-5-5-5-5-5-5-5-5-5-5-5-5-5-5-5-|
E|---------------------------------|-3-3-3-3-3-3-3-3-3-3-3-3-3-3-3-3-|
   pm throughout
e|---------------------------------|---------------------------------|
B|---------------------------------|---------------------------------|
G|---------------------------------|---------------------------------|
D|-3-3-3-3-3-3-3-3-3-3-3-3-3-3-3-3-|-5-5-5-5-5-5-5-5-5-5-5-5-5-5-5-5-|
A|-3-3-3-3-3-3-3-3-3-3-3-3-3-3-3-3-|-5-5-5-5-5-5-5-5-5-5-5-5-5-5-5-5-|
E|-1-1-1-1-1-1-1-1-1-1-1-1-1-1-1-1-|-3-3-3-3-3-3-3-3-3-3-3-3-3-3-3-3-|
  pm throughout



Then play the Chorus again.

Then the outro is over the Chorus, with this lead:
e|-----------------------------------------|
B|-5-----5---------5-----3-----6--5--------|
G|-5-5-5-5-5-5-5-5-5-5-5-5-5-5------5--5-5-|
D|-----------------------------------------|
A|-----------------------------------------|
E|-----------------------------------------|
comments
print report bad tab
I want to post or [tab]
guest
You may want to rate the tab now too:
select rating
Please do not post tabs as comments. Select "correction" instead!