Oops, an error
Loading. Please wait.

22 Acacia Avenue Tab

version 1
version 1

Whole song

38,997 views 57 this week
5 commentsread comments
1 2 3 4 5
x 16
add to favorites
launch autoscroll
font size
0
reset
how to read this tab
guitar tuner
Autoscroll
slow
fast
+/-
esc
set tempo
stop
Help us to improve Ultimate-Guitar.com Take our survey!
×
Author
[Intro]

e|--------------------------------------|
B|--------------------------------------|
G|--------------------------------------|
D|---9----------------------------------|
A|---7-7-7-7-7-7-7-7-7-7-7-7------------|
E|--------------------------------------|
   
e|----------------------------------|
B|----------------------------------|
G|----------------------------------|
D|-7--9-----------------------------|
A|-5--7-----------------------------|
E|----------------------------------|

e|--------------------------------------|
B|--------------------------------------|
G|--------------------------------------|
D|---9----------------------------------|
A|---7-7-7-7-7-7-7-7-7-7-7-7------------|
E|--------------------------------------|
    
e|----------------------------------------|
B|----------------------------------------|
G|----------------------------------------|
D|--7-------------------------------------|
A|--5-5-5-5-5-5-5-------------------------|
E|----------------------------------------|
   
e|---------------------------------------|
B|---------------------------------------|
G|---------------------------------------|
D|--7-7---9-9-9--------------------------|
A|--5-5---7-7-7--------------------------|
E|---------------------------------------|

e|--------------------------------------|
B|--------------------------------------|
G|--------------------------------------|
D|---9----------------------------------|
A|---7-7-7-7-7-7-7-7-7-7-7-7------------|
E|--------------------------------------|

e|----------------------------------------|
B|----------------------------------------|
G|----------------------------------------|
D|--7-------------------------------------|
A|--5-5-5-5-5-5-5-------------------------|
E|----------------------------------------|
   
e|---------------------------------------|
B|---------------------------------------|
G|---------------------------------------|
D|--7-7---5-5-5--------------------------|
A|--5-5---3-3-3--------------------------|
E|---------------------------------------|

e|----------------------------------|
B|----------------------------------|
G|----------------------------------|
D|---5------------------------------|
A|---3-3-3-3-3-3-3-3----------------|
E|----------------------------------|
   
e|--------------------------------------|
B|--------------------------------------|
G|--------------------------------------|
D|---9----------------------------------|
A|---7-7-7-7-7-7-7-7-7-7-7-7------------|
E|--------------------------------------|
   
[Verse]

e|----------------------|
B|----------------------|
G|----------------------|
D|--9-s-8-s-7-s-5-------|
A|--7-s-6-s-5-s-3-------|
E|----------------------|

e|----------------------------------------------|
B|----------------------------------------------|
G|----------------------------------------------|
D|----5-5-5-5--5---7-7-7-7--7------9-9-9-9-9----|
A|----3-3-3-3--3---5-5-5-5--5------7-7-7-7-7----|
E|----------------------------------------------|

e|----------------------|
B|----------------------|
G|----------------------|
D|--9-s-8-s-7-s-5-------|
A|--7-s-6-s-5-s-3-------|
E|----------------------|

e|----------------------------------------------|
B|----------------------------------------------|
G|----------------------------------------------|
D|----5-5-5-5--5---7-7-7-7--7------9-9-9-9-9----|
A|----3-3-3-3--3---5-5-5-5--5------7-7-7-7-7----|
E|----------------------------------------------|

e|---------------------------|
B|---------------------------|
G|---------------------------|
D|--7--9------9-9-9-9--------|
A|--5--7------7-7-7-7--------|
E|---------------------------|

e|---------------------------|
B|---------------------------|
G|---------------------------|
D|--7--9------9-9-9----------|
A|--5--7------7-7-7----------|
E|---------------------------|

e|----------------------|
B|----------------------|
G|----------------------|
D|--9-s-8-s-7-s-5-------|
A|--7-s-6-s-5-s-3-------|
E|----------------------|

e|----------------------------------------------|
B|----------------------------------------------|
G|----------------------------------------------|
D|----5-5-5-5--5---7-7-7-7--7------9-9-9-9-9----|
A|----3-3-3-3--3---5-5-5-5--5------7-7-7-7-7----|
E|----------------------------------------------|

e|----------------------|
B|----------------------|
G|----------------------|
D|--9-s-8-s-7-s-5-------|
A|--7-s-6-s-5-s-3-------|
E|----------------------|

e|----------------------------------------------|
B|----------------------------------------------|
G|----------------------------------------------|
D|----5-5-5-5--5---7-7-7-7--7------9-9-9-9-9----|
A|----3-3-3-3--3---5-5-5-5--5------7-7-7-7-7----|
E|----------------------------------------------|

e|---------------------------|
B|---------------------------|
G|---------------------------|
D|--7--9------9-9-9-9--------|
A|--5--7------7-7-7-7--------|
E|---------------------------|

e|---------------------------|
B|---------------------------|
G|---------------------------|
D|--7--9------9-9-9----------|
A|--5--7------7-7-7----------|
E|---------------------------|

[Interlude]

e|------------------------------------------------------|
B|------------------------------------------------------|
G|------------------------------------------------------|
D|-------------------5----------------7-7-7---p5--------|
A|--------5--7-----------------5--7---------------7--5--|
E|-0-0-0--------0-0-0---0-0-0---------------------------|

e|--------------------------------------|
B|--------------------------------------|
G|--------------------------------------|
D|-------------5-5-5-4-4-4-5------------|
A|---3--3-3-----------------------------|
E|--------------------------------------|

e|-------------------------------------------|
B|-------------------------------------------|
G|-------------------------------------------|
D|-------------5-5-5-4-4-4-5------5--4-------|
A|---3--3-3----------------------------3-----|
E|-------------------------------------------|

[Chorus]

E-----------------------------------------|
B-----------------------------------------|
G-----------------------------------------|
D--5----7----4----5------5---7------------|
A--3----5----2----3------3---5------------|
E-----------------------------------------|

e|------------------------------------------|
B|------------------------------------------|
G|------------------------------------------|
D|---7---9---9-9-9-9-9-9--------------------|
A|---5---7---7-7-7-7-7-7--------------------|
E|------------------------------------------|

[Pre-Solo]

E----------------------------|
B----------------------------|
G----------------------------|
D--7--9------9-9-9-9---------|
A--5--7------7-7-7-7---------|
E----------------------------|

e|----------------------------|
B|----------------------------|
G|----------------------------|
D|--7--9------9-9-9-9---------|
A|--5--7------7-7-7-7---------|
E|----------------------------|

e|----------------------------|
B|----------------------------|
G|----------------------------|
D|--7--9------9-9-9-9---------|
A|--5--7------7-7-7-7---------|
E|----------------------------|

e|---------------------------------------|
B|---------------------------------------|
G|--9-9-9--7-7-7--------9-9-9---7-7-7----|
D|--7-7-7--5-5-5--------7-7-7---5-5-5----|
A|---------------------------------------|
E|---------------------------------------|

e|----------------------------|
B|----------------------------|
G|----------------------------|
D|--7--9------9-9-9-9---------|
A|--5--7------7-7-7-7---------|
E|----------------------------|

e|----------------------------|
B|----------------------------|
G|----------------------------|
D|--7--9------9-9-9-9---------|
A|--5--7------7-7-7-7---------|
E|----------------------------|

e|----------------------------|
B|----------------------------|
G|----------------------------|
D|--7--9------9-9-9-9---------|
A|--5--7------7-7-7-7---------|
E|----------------------------|

e|---------------------------------------|
B|---------------------------------------|
G|--9-9-9--7-7-7--------9-9-9---7-7-7----|
D|--7-7-7--5-5-5--------7-7-7---5-5-5----|
A|---------------------------------------|
E|---------------------------------------|

[Solo]



************************************

| p  Pull-off
| s  slide

************************************
Suggest correction
comments
print report bad tab
5 comments total. Showing first comments.
+1 reply
Slayer2 72 Apr 05, 2006 03:43 PM

looks good, but i would palm mute the intro as just a power chord the whole time

+1 reply
Donkey Fly 2,616 Jun 28, 2006 10:30 AM

wish it had a solo on this

0 reply
sakuandguitar 10 Jan 17, 2009 03:22 AM

completed with autoscroll speed 5. Easy!(and good too) :)

guest
You may want to rate the tab now too:
select rating
Wanna post a correction for this tab? Suggest correction