Oops, an error
Loading. Please wait.

22 Acacia Avenue drums

version 2
version 2

Whole song

103 views 1 this week
no commentswrite comment
1 2 3 4 5
x 11
add to favorites
×
Save as Personal and add changes to this tab that will be seen only by you. Learn more ›
×
You can save this tab as Personal to edit and correct it or add notes. All changes will be seen only by you. Learn more »
launch autoscroll
font size
0
reset
guitar tuner
edit
Autoscroll
slow
fast
+/-
esc
set tempo
stop
Author
Difficulty
                               22 Acacia Avenue        
                         

                                 Iron Maiden

Nicko McBrain



          Intro                                       Verso Riff 1      
     S    W                   H.           E.   S     W                 
C||----|-------------------|-------------------38-|--38----------------|
C||----|-------------------|-------------------44-|--36----------------|
C||----|-------------------|----------------------|--44----------------|
C||----|-------------------|----------------------|--49----------------|
C||----|-------------------|----------------------|--------------------|
C||----|-------------------|----------------------|--------------------|


   H        E.   E   E   T  T     W                 
--36--------L---38--38--38-38-|--38----------------|
--44--------L-----------------|--36----------------|
--49--------L-----------------|--44----------------|
------------------------------|--49----------------|
------------------------------|--------------------|
------------------------------|--------------------|


   H        E.   E   E   T  T     H.           S  E   T  T     H.            
--36--------L---38--38--38-38-|--38--------------38--38-38-|--36------------|
--44--------L-----------------|--36------------------------|--44------------|
--49--------L-----------------|--44------------------------|--49------------|
------------------------------|--49------------------------|----------------|
------------------------------|----------------------------|----------------|
------------------------------|----------------------------|----------------|


               Verso Riff 2                                              
   S  S  S     S            S  S  S  S  S  S  S  S  S  S  S  S  S  S  S  
--47-45-43-|--36-----------44-36-38-36-44-36-38-36-44-36-38-44-36-44-38-|
-----------|--44--------------44-44-44----44-44-44----44-44----44----44-|
-----------|--49--------------------------------------------------------|
-----------|------------------------------------------------------------|
-----------|------------------------------------------------------------|
-----------|------------------------------------------------------------|


   S  S  S  S  S  S  S  S  S  S  S  S  S  S  S  S  
--36-44-36-38-36-44-36-38-36-44-36-38-44-38-36-38-|
--44----44-44-44----44-44-44----44-44----44-44-44-|
--------------------------------------------------|
--------------------------------------------------|
--------------------------------------------------|
--------------------------------------------------|


   S  S  S  S  S  S  S  S  S  S  S  S  S  S  S  S  
--36-44-36-38-36-44-36-38-36-44-36-38-44-36-44-38-|
--44----44-44-44----44-44-44----44-44----44----44-|
--49----------------------------------------------|
--------------------------------------------------|
--------------------------------------------------|
--------------------------------------------------|


   S  S  S  S  S  S  S  S  S  S  S  S  S  S  S  S  
--36-44-36-38-36-44-36-38-36-44-36-38-44-38-36-38-|
--44----44-44-44----44-44-44----44-44----44-44-44-|
--------------------------------------------------|
--------------------------------------------------|
--------------------------------------------------|
--------------------------------------------------|


   S  S  S  S  S  S  S  S  S  S  S  S  S  S  S  S  
--36-44-36-38-36-44-36-38-36-44-36-38-44-36-44-38-|
--44----44-44-44----44-44-44----44-44----44----44-|
--49----------------------------------------------|
--------------------------------------------------|
--------------------------------------------------|
--------------------------------------------------|


   S  S  S  S  S  S  S  S  S  S  S  S  S  S  S  S  
--36-44-36-38-36-44-36-38-36-44-36-38-44-38-36-38-|
--44----44-44-44----44-44-44----44-44----44-44-44-|
--------------------------------------------------|
--------------------------------------------------|
--------------------------------------------------|
--------------------------------------------------|


   S  S  S  S  S  S  S  S  S  S  S  S  S  S  S  S  
--36-44-36-38-36-44-36-38-36-44-36-38-44-36-44-38-|
--44----44-44-44----44-44-44----44-44----44----44-|
--49----------------------------------------------|
--------------------------------------------------|
--------------------------------------------------|
--------------------------------------------------|


   S  S  S  S  S  S  S  S  S  S  S  S  S  S  S  S  
--36-44-36-38-36-44-36-38-36-44-36-38-44-38-36-38-|
--44----44-44-44----44-44-44----44-44----44-44-44-|
--------------------------------------------------|
--------------------------------------------------|
--------------------------------------------------|
--------------------------------------------------|


                                                      Break             
   S  S  S  S  S  S  S  S  S  S  S  S  S  S  S  S     W                 
--36-44-36-38-36-44-36-38-36-44-36-38-36-44-36-38-|--38----------------|
--44----44-44-44----44-44-44----44-44-44----44-44-|--36----------------|
--49----------------------------------------------|--44----------------|
--------------------------------------------------|--49----------------|
--------------------------------------------------|--------------------|
--------------------------------------------------|--------------------|


                       Verso Riff 1                                     
  W                    W                    H        E.   E   E   T  T  
-------------------|--38----------------|--36--------L---38--38--38-38-|
-------------------|--36----------------|--44--------L-----------------|
-------------------|--44----------------|--49--------L-----------------|
-------------------|--49----------------|------------------------------|
-------------------|--------------------|------------------------------|
-------------------|--------------------|------------------------------|


   W                    H        E.   E   E   T  T  
--38----------------|--36--------L---38--38--38-38-|
--36----------------|--44--------L-----------------|
--44----------------|--49--------L-----------------|
--49----------------|------------------------------|
--------------------|------------------------------|
--------------------|------------------------------|


   H.           S  E   T  T     H.               S  S  S  
--38--------------38--38-38-|--36------------|--47-45-43-|
--36------------------------|--44------------|-----------|
--44------------------------|--49------------|-----------|
--49------------------------|----------------|-----------|
----------------------------|----------------|-----------|
----------------------------|----------------|-----------|


   Verso Riff 2                                              
   S            S  S  S  S  S  S  S  S  S  S  S  S  S  S  S  
--36-----------44-36-38-36-44-36-38-36-44-36-38-44-36-44-38-|
--44--------------44-44-44----44-44-44----44-44----44----44-|
--49--------------------------------------------------------|
------------------------------------------------------------|
------------------------------------------------------------|
------------------------------------------------------------|


   S  S  S  S  S  S  S  S  S  S  S  S  S  S  S  S  
--36-44-36-38-36-44-36-38-36-44-36-38-44-36-36-38-|
--44----44-44-44----44-44-44----44-44----44-44-44-|
--------------------------------------------------|
--------------------------------------------------|
--------------------------------------------------|
--------------------------------------------------|


   S  S  S  S  S  S  S  S  S  S  S  S  S  S  S  S  
--36-44-36-38-36-44-36-38-36-44-36-38-44-36-44-38-|
--44----44-44-44----44-44-44----44-44----44----44-|
--49----------------------------------------------|
--------------------------------------------------|
--------------------------------------------------|
--------------------------------------------------|


   S  S  S  S  S  S  S  S  S  S  S  S  S  S  S  S  
--36-44-36-38-36-44-36-38-36-44-36-38-44-36-36-38-|
--44----44-44-44----44-44-44----44-44----44-44-44-|
--------------------------------------------------|
--------------------------------------------------|
--------------------------------------------------|
--------------------------------------------------|


   S  S  S  S  S  S  S  S  S  S  S  S  S  S  S  S  
--36-44-36-38-36-44-36-38-36-44-36-38-44-36-44-38-|
--44----44-44-44----44-44-44----44-44----44----44-|
--49----------------------------------------------|
--------------------------------------------------|
--------------------------------------------------|
--------------------------------------------------|


   S  S  S  S  S  S  S  S  S  S  S  S  S  S  S  S  
--36-44-36-38-36-44-36-38-36-44-36-38-44-36-36-38-|
--44----44-44-44----44-44-44----44-44----44-44-44-|
--------------------------------------------------|
--------------------------------------------------|
--------------------------------------------------|
--------------------------------------------------|


   S  S  S  S  S  S  S  S  S  S  S  S  S  S  S  S  
--36-44-36-38-36-44-36-38-36-44-36-38-44-36-44-38-|
--44----44-44-44----44-44-44----44-44----44----44-|
--49----------------------------------------------|
--------------------------------------------------|
--------------------------------------------------|
--------------------------------------------------|


   S  S  S  S  S  S  S  S  S  S  S  S  S  S  S  S  
--36-44-36-38-36-44-36-38-36-44-36-38-44-36-36-38-|
--44----44-44-44----44-44-44----44-44----44-44-44-|
--------------------------------------------------|
--------------------------------------------------|
--------------------------------------------------|
--------------------------------------------------|


                                                      Break         
   S  S  S  S  S  S  S  S  S  S  S  S  S  S  S  S     H.            
--36-44-36-38-36-44-36-38-36-44-36-38-36-44-36-38-|--38------------|
--44----44-44-44----44-44-44----44-44-44----44-44-|--36------------|
--49----------------------------------------------|--46------------|
--------------------------------------------------|--49------------|
--------------------------------------------------|----------------|
--------------------------------------------------|----------------|


                   Riff A            
   H.              W.                
---L------------|-------------------|
---L------------|-------------------|
---L------------|-------------------|
---L------------|-------------------|
----------------|-------------------|
----------------|-------------------|


  H.               S  S  S  S  S  S  S  S  S  S  S  S  
---------------48g48-48-48-47-47-45-45-45-43-43-41-41-|
------------------------------------------------------|
------------------------------------------------------|
------------------------------------------------------|
------------------------------------------------------|
------------------------------------------------------|


   Verso Riff 3                                                                 
   S            S  S  S  S  S  S  S  S  S  S  S  S  S  S  S  S  S  S  S  S  S  S
--36-----------44-36-38-36-44-36-44-36-38-44-36-36-44-36-38-36-44-36-44-36-38-44
--44--------------44-44-44----44----44-44----44-44----44-44-44----44----44-44---
--49-----------------46----------------46----------------46----------------46---
--------------------------------------------------------------------------------
--------------------------------------------------------------------------------
--------------------------------------------------------------------------------


   S  S  S  S  S  S  S  S  S  S  S  S  S  S  S  S  S  S  S  S  S  S  S  S  
--36-44-36-38-36-44-36-44-36-38-44-36-36-44-36-38-36-44-36-44-36-38-44-36-|
--44----44-44-44----44----44-44----44-44----44-44-44----44----44-44----44-|
--49-------46----------------46----------------46----------------46-------|
--------------------------------------------------------------------------|
--------------------------------------------------------------------------|
--------------------------------------------------------------------------|


   S  S  S  S  S  S  S  S  S  S  S  S  S  S  S  S  S  S  S  S  S  S  S  S  
--36-44-36-38-36-44-36-44-36-38-44-36-36-44-36-38-36-44-36-44-36-38-44-36-|
--44-51-44-44-44-51-44-51-44-44-51-44-44-51-44-44-44-51-44-51-44-44-51-44-|
--49-------51----------------51----------------51----------------51-------|
--------------------------------------------------------------------------|
--------------------------------------------------------------------------|
--------------------------------------------------------------------------|


   S  S  S  S  S  S  S  S  S  S  S  S  S  S  S  S  S  S  S  S  S  S  S  S  
--36-44-36-38-36-44-36-44-36-38-44-36-36-44-36-38-36-44-36-44-36-38-44-36-|
--44----44-44-44----44----44-44----44-44----44-44-44----44----44-44----44-|
--49-------46----------------46----------------46----------------46-------|
--------------------------------------------------------------------------|
--------------------------------------------------------------------------|
--------------------------------------------------------------------------|


   S  S  S  S  S  S  S  S  S  S  S  S  S  S  S  S  S  S  S  S  S  S  S  S  
--36-44-36-38-36-44-36-44-36-38-44-36-36-44-36-38-36-44-36-44-36-38-44-36-|
--44----44-44-44----44----44-44----44-44----44-44-44----44----44-44----44-|
--49-------46----------------46----------------46----------------46-------|
--------------------------------------------------------------------------|
--------------------------------------------------------------------------|
--------------------------------------------------------------------------|


   S  S  S  S  S  S  S  S  S  S  S  S  S  S  S  S  S  S  S  S  S  S  S  S  
--36-44-36-38-36-44-36-44-36-38-44-36-36-44-36-38-36-44-36-44-36-38-44-36-|
--44----44-44-44----44----44-44----44-44----44-44-44----44----44-44----44-|
--49-------46----------------46----------------46----------------46-------|
--------------------------------------------------------------------------|
--------------------------------------------------------------------------|
--------------------------------------------------------------------------|


   S  S  S  S  S  S  S  S  S  S  S  S  S  S  S  S  S  S  S  S  S  S  S  S  
--36-44-36-38-36-44-36-44-36-38-44-36-36-44-36-38-36-44-36-44-36-38-44-36-|
--44-51-44-44-44-51-44-51-44-44-51-44-44-51-44-44-44-51-44-51-44-44-51-44-|
--49-------51----------------51----------------51----------------51-------|
--------------------------------------------------------------------------|
--------------------------------------------------------------------------|
--------------------------------------------------------------------------|


   S  S  S  S  S  S  S  S  S  S  S  S  S  S  S  S  S  S  S  S  S  S  S  S  
--36-44-36-38-36-44-36-44-36-38-44-36-36-44-36-38-36-44-36-44-36-38-44-36-|
--44----44-44-44----44----44-44----44-44----44-44-44----44----44-44----44-|
--49-------46----------------46----------------46----------------46-------|
--------------------------------------------------------------------------|
--------------------------------------------------------------------------|
--------------------------------------------------------------------------|


   Coro                                                                      
   S    S  S  S  S  S  S  S  S  S  S  S  S  S  S  S  S  S  S  S  S  S  S  S  
--36---44-36-38-36-44-36-44-36-38-44-36-36-44-36-38-36-44-36-44-36-38-44-36-|
--44------44-44-44----44----44-44----44-44----44-44-44----44----44-44----44-|
--49---------51----------------51----------------51----------------51-------|
----------------------------------------------------------------------------|
----------------------------------------------------------------------------|
----------------------------------------------------------------------------|


   S  S  S  S  S  S  S  S  S  S  S  S  S  S  S  S  S  S  S  S  S  S  S  S  
--36-44-36-38-36-44-36-44-36-38-44-36-36-44-36-38-36-44-36-44-36-38-44-36-|
--44----44-44-44----44----44-44----44-44----44-44-44----44----44-44----44-|
--49-------51----------------51----------------51----------------51-------|
--------------------------------------------------------------------------|
--------------------------------------------------------------------------|
--------------------------------------------------------------------------|


   S  S  S  S  S  S  S  S  S  S  S  S  S  S  S  S  S  S  S  S  S  S  S  S  
--36-44-36-38-36-44-36-44-36-38-44-36-36-44-36-38-36-44-36-44-36-38-44-36-|
--44----44-44-44----44----44-44----44-44----44-44-44----44----44-44----44-|
--49-------51----------------51----------------51----------------51-------|
--------------------------------------------------------------------------|
--------------------------------------------------------------------------|
--------------------------------------------------------------------------|


   E   S  S  S  S  S  S  S  S  S  S  E   S  S  S  S  S  S  S  S  S  S  
--36--38-38-38-38-38-38-38-38-38-38-36--38-38-38-38-38-38-38-38-38-38-|
--44--44----------------------------44--44----------------------------|
--49--57----------------------------49--57----------------------------|
----------------------------------------------------------------------|
----------------------------------------------------------------------|
----------------------------------------------------------------------|


   S  S  S  S  S  S  S  S  S  S  S  S  S  S  S  S  S  S  S  S  S  S  S  S  
--36-44-36-38-36-44-36-44-36-38-44-36-36-44-36-38-36-44-36-44-36-38-44-36-|
--44----44-44-44----44----44-44----44-44----44-44-44----44----44-44----44-|
--49-------51----------------51----------------51----------------51-------|
--------------------------------------------------------------------------|
--------------------------------------------------------------------------|
--------------------------------------------------------------------------|


   S  S  S  S  S  S  S  S  S  S  S  S  S  S  S  S  S  S  S  S  S  S  S  S  
--36-44-36-38-36-44-36-44-36-38-44-36-36-44-36-38-36-44-36-44-36-38-44-36-|
--44----44-44-44----44----44-44----44-44----44-44-44----44----44-44----44-|
--49-------51----------------51----------------51----------------51-------|
--------------------------------------------------------------------------|
--------------------------------------------------------------------------|
--------------------------------------------------------------------------|


   S  S  S  S  S  S  S  S  S  S  S  S  S  S  S  S  S  S  S  S  S  S  S  S  
--36-44-36-38-36-44-36-44-36-38-44-36-36-44-36-38-36-44-36-44-36-38-44-36-|
--44----44-44-44----44----44-44----44-44----44-44-44----44----44-44----44-|
--49-------51----------------51----------------51----------------51-------|
--------------------------------------------------------------------------|
--------------------------------------------------------------------------|
--------------------------------------------------------------------------|


   S  S  S  S  S  S  S  S  S  S  S  S  S  S  S  S  S  S  S  S  S  S  S  S  
--36-44-36-38-36-44-36-44-36-38-44-36-36-44-36-38-36-44-36-44-36-38-44-36-|
--44----44-44-44----44----44-44----44-44----44-44-44----44----44-44----44-|
--49-------46----------------46----------------46----------------46-------|
--------------------------------------------------------------------------|
--------------------------------------------------------------------------|
--------------------------------------------------------------------------|


   Verso Riff 3                                                                 
   S            S  S  S  S  S  S  S  S  S  S  S  S  S  S  S  S  S  S  S  S  S  S
--36-----------44-36-38-36-44-36-44-36-38-44-36-36-44-36-38-36-44-36-44-36-38-44
--44--------------44-44-44----44----44-44----44-44----44-44-44----44----44-44---
--49-----------------46----------------46----------------46----------------46---
--------------------------------------------------------------------------------
--------------------------------------------------------------------------------
--------------------------------------------------------------------------------


   S  S  S  S  S  S  S  S  S  S  S  S  S  S  S  S  S  S  S  S  S  S  S  S  
--36-44-36-38-36-44-36-44-36-38-44-36-36-44-36-38-36-44-36-44-36-38-44-36-|
--44----44-44-44----44----44-44----44-44----44-44-44----44----44-44----44-|
--49-------46----------------46----------------46----------------46-------|
--------------------------------------------------------------------------|
--------------------------------------------------------------------------|
--------------------------------------------------------------------------|


   S  S  S  S  S  S  S  S  S  S  S  S  S  S  S  S  S  S  S  S  S  S  S  S  
--36-44-36-38-36-44-36-44-36-38-44-36-36-44-36-38-36-44-36-44-36-38-44-36-|
--44-51-44-44-44-51-44-51-44-44-51-44-44-51-44-44-44-51-44-51-44-44-51-44-|
--49-------51----------------51----------------51----------------51-------|
--------------------------------------------------------------------------|
--------------------------------------------------------------------------|
--------------------------------------------------------------------------|


   S  S  S  S  S  S  S  S  S  S  S  S  S  S  S  S  S  S  S  S  S  S  S  S  
--36-44-36-38-36-44-36-44-36-38-44-36-36-44-36-38-36-44-36-44-36-38-44-36-|
--44----44-44-44----44----44-44----44-44----44-44-44----44----44-44----44-|
--49-------46----------------46----------------46----------------46-------|
--------------------------------------------------------------------------|
--------------------------------------------------------------------------|
--------------------------------------------------------------------------|


   S  S  S  S  S  S  S  S  S  S  S  S  S  S  S  S  S  S  S  S  S  S  S  S  
--36-44-36-38-36-44-36-44-36-38-44-36-36-44-36-38-36-44-36-44-36-38-44-36-|
--44----44-44-44----44----44-44----44-44----44-44-44----44----44-44----44-|
--49-------46----------------46----------------46----------------46-------|
--------------------------------------------------------------------------|
--------------------------------------------------------------------------|
--------------------------------------------------------------------------|


   S  S  S  S  S  S  S  S  S  S  S  S  S  S  S  S  S  S  S  S  S  S  S  S  
--36-44-36-38-36-44-36-44-36-38-44-36-36-44-36-38-36-44-36-44-36-38-44-36-|
--44----44-44-44----44----44-44----44-44----44-44-44----44----44-44----44-|
--49-------46----------------46----------------46----------------46-------|
--------------------------------------------------------------------------|
--------------------------------------------------------------------------|
--------------------------------------------------------------------------|


   S  S  S  S  S  S  S  S  S  S  S  S  S  S  S  S  S  S  S  S  S  S  S  S  
--36-44-36-38-36-44-36-44-36-38-44-36-36-44-36-38-36-44-36-44-36-38-44-36-|
--44-51-44-44-44-51-44-51-44-44-51-44-44-51-44-44-44-51-44-51-44-44-51-44-|
--49-------51----------------51----------------51----------------51-------|
--------------------------------------------------------------------------|
--------------------------------------------------------------------------|
--------------------------------------------------------------------------|


   S  S  S  S  S  S  S  S  S  S  S  S  S  S  S  S  S  S  S  S  S  S  S  S  
--36-44-36-38-36-44-36-44-36-38-44-36-36-44-36-38-36-44-36-44-36-38-44-36-|
--44----44-44-44----44----44-44----44-44----44-44-44----44----44-44----44-|
--49-------46----------------46----------------46----------------46-------|
--------------------------------------------------------------------------|
--------------------------------------------------------------------------|
--------------------------------------------------------------------------|


   Coro                                                                      
   S    S  S  S  S  S  S  S  S  S  S  S  S  S  S  S  S  S  S  S  S  S  S  S  
--36---44-36-38-36-44-36-44-36-38-44-36-36-44-36-38-36-44-36-44-36-38-44-36-|
--44------44-44-44----44----44-44----44-44----44-44-44----44----44-44----44-|
--49---------51----------------51----------------51----------------51-------|
----------------------------------------------------------------------------|
----------------------------------------------------------------------------|
----------------------------------------------------------------------------|


   S  S  S  S  S  S  S  S  S  S  S  S  S  S  S  S  S  S  S  S  S  S  S  S  
--36-44-36-38-36-44-36-44-36-38-44-36-36-44-36-38-36-44-36-44-36-38-44-36-|
--44----44-44-44----44----44-44----44-44----44-44-44----44----44-44----44-|
--49-------51----------------51----------------51----------------51-------|
--------------------------------------------------------------------------|
--------------------------------------------------------------------------|
--------------------------------------------------------------------------|


   S  S  S  S  S  S  S  S  S  S  S  S  S  S  S  S  S  S  S  S  S  S  S  S  
--36-44-36-38-36-44-36-44-36-38-44-36-36-44-36-38-36-44-36-44-36-38-44-36-|
--44----44-44-44----44----44-44----44-44----44-44-44----44----44-44----44-|
--49-------51----------------51----------------51----------------51-------|
--------------------------------------------------------------------------|
--------------------------------------------------------------------------|
--------------------------------------------------------------------------|


   E   S  S  S  S  S  S  S  S  S  S  E   S  S  S  S  S  S  S  S  S  S  
--36--38-38-38-38-38-38-38-38-38-38-36--38-38-38-38-38-38-38-38-38-38-|
--44--44----------------------------44--44----------------------------|
--49--57----------------------------49--57----------------------------|
----------------------------------------------------------------------|
----------------------------------------------------------------------|
----------------------------------------------------------------------|


   S  S  S  S  S  S  S  S  S  S  S  S  S  S  S  S  S  S  S  S  S  S  S  S  
--36-44-36-38-36-44-36-44-36-38-44-36-36-44-36-38-36-44-36-44-36-38-44-36-|
--44----44-44-44----44----44-44----44-44----44-44-44----44----44-44----44-|
--49-------51----------------51----------------51----------------51-------|
--------------------------------------------------------------------------|
--------------------------------------------------------------------------|
--------------------------------------------------------------------------|


   S  S  S  S  S  S  S  S  S  S  S  S  S  S  S  S  S  S  S  S  S  S  S  S  
--36-44-36-38-36-44-36-44-36-38-44-36-36-44-36-38-36-44-36-44-36-38-44-36-|
--44----44-44-44----44----44-44----44-44----44-44-44----44----44-44----44-|
--49-------51----------------51----------------51----------------51-------|
--------------------------------------------------------------------------|
--------------------------------------------------------------------------|
--------------------------------------------------------------------------|


   S  S  S  S  S  S  S  S  S  S  S  S  S  S  S  S  S  S  S  S  S  S  S  S  
--36-44-36-38-36-44-36-44-36-38-44-36-36-44-36-38-36-44-36-44-36-38-44-36-|
--44----44-44-44----44----44-44----44-44----44-44-44----44----44-44----44-|
--49-------51----------------51----------------51----------------51-------|
--------------------------------------------------------------------------|
--------------------------------------------------------------------------|
--------------------------------------------------------------------------|


   S  S  S  S  S  S  S  S  S  S  S  S  S  S  S  S  S  S  S  S  S  S  S  S  
--36-44-36-38-36-44-36-44-36-38-44-36-38-38-36-38-38-36-50-48-47-45-43-41-|
--44----44-44-44----44----44-44----44-------44-------44-------------------|
--49-------46----------------46-------------------------------------------|
--------------------------------------------------------------------------|
--------------------------------------------------------------------------|
--------------------------------------------------------------------------|


   Verso Riff 4                                                                 
   E            S  S  S  S  S  S  S  S  S  S  E   S  S  S  S  S  S  S  S  S  S  
--36-----------38-38-38-38-38-38-38-38-38-38-36--38-38-38-38-38-38-38-38-38-38-|
--44-----------44----------------------------44--44----------------------------|
--49-----------57----------------------------49--57----------------------------|
-------------------------------------------------------------------------------|
-------------------------------------------------------------------------------|
-------------------------------------------------------------------------------|


   E   S  S  S  S  S  S  S  S  S  S  E   S  S  S  S  E   S  S  S  S  
--36--38-38-38-38-38-38-38-38-38-38-36--38-38-38-38-36--38-38-38-38-|
--44--44----------------------------44--44----------44--44----------|
--49--57----------------------------49--57----------49--57----------|
--------------------------------------------------------------------|
--------------------------------------------------------------------|
--------------------------------------------------------------------|


   E   S  S  S  S  S  S  S  S  S  S  E   S  S  S  S  S  S  S  S  S  S  
--36--38-38-38-38-38-38-38-38-38-38-36--38-38-38-38-38-38-38-38-38-38-|
--44--44----------------------------44--44----------------------------|
--49--57----------------------------49--57----------------------------|
----------------------------------------------------------------------|
----------------------------------------------------------------------|
----------------------------------------------------------------------|


   E   S  S  S  S  S  S  S  S  S  S  E   S  S  S  S  E   S  S  S  S  
--36--38-38-38-38-38-38-38-38-38-38-36--38-38-38-38-36--38-38-38-38-|
--44--44----------------------------44--44----------44--44----------|
--49--57----------------------------49--57----------49--57----------|
--------------------------------------------------------------------|
--------------------------------------------------------------------|
--------------------------------------------------------------------|


   E   S  S  S  S  S  S  S  S  S  S  E   S  S  S  S  S  S  S  S  S  S  
--36--38-38-38-38-38-38-38-38-38-38-36--38-38-38-38-38-38-38-38-38-38-|
--44--44----------------------------44--44----------------------------|
--49--57----------------------------49--57----------------------------|
----------------------------------------------------------------------|
----------------------------------------------------------------------|
----------------------------------------------------------------------|


   E   S  S  S  S  S  S  S  S  S  S  E   S  S  S  S  E   S  S  S  S  
--36--38-38-38-38-38-38-38-38-38-38-36--38-38-38-38-36--38-38-38-38-|
--44--44----------------------------44--44----------44--44----------|
--49--57----------------------------49--57----------49--57----------|
--------------------------------------------------------------------|
--------------------------------------------------------------------|
--------------------------------------------------------------------|


   E   S  S  S  S  S  S  S  S  S  S  E   S  S  S  S  S  S  S  S  S  S  
--36--38-38-38-38-38-38-38-38-38-38-36--38-38-38-38-38-38-38-38-38-38-|
--44--44----------------------------44--44----------------------------|
--49--57----------------------------49--57----------------------------|
----------------------------------------------------------------------|
----------------------------------------------------------------------|
----------------------------------------------------------------------|


   E   S  S  S  S  S  S  S  S  S  S  E   S  S  S  S  E   S  S  S  S  
--36--38-38-38-38-38-38-38-38-38-38-36--38-38-38-38-36--38-38-38-38-|
--44--44----------------------------44--44----------44--44----------|
--49--57----------------------------49--57----------49--57----------|
--------------------------------------------------------------------|
--------------------------------------------------------------------|
--------------------------------------------------------------------|


   Q.         Q.      E.   S  S  S  E.      E.   
--36------38g38------38---47-45-43-41---45g45---|
--44--------------------------------------------|
--49--------------------------------------------|
------------------------------------------------|
------------------------------------------------|
------------------------------------------------|


   Solo 1 Dave Murray                                         
   Q                  E   E   E   E   E   E   E   E   E   E   
--36-----------------36--38--44--44--36--36--44--38--36--44--|
--44-----------------51--44----------44--44------44--44------|
--49---------------------51----------------------51--51------|
-------------------------------------------------------------|
-------------------------------------------------------------|
-------------------------------------------------------------|


   Q     E   E   E   E   E   E   E   E   E   E   
--36----36--38--44--44--36--36--44--38--36--44--|
--44----51--44----------44--44------44--44------|
--49--------51----------------------51--51------|
------------------------------------------------|
------------------------------------------------|
------------------------------------------------|


   E   E   E   E   E   E      E.   S  S  S  E.      E.   
--36--44--36--38--44--36--38g38---47-45-43-41---45g45---|
--44------44--44------44--------------------------------|
--49----------------------------------------------------|
--------------------------------------------------------|
--------------------------------------------------------|
--------------------------------------------------------|


   Q     E   E   E   E   E   E   E   E   E   E   
--36----36--38--44--44--36--36--44--38--36--44--|
--44----51--44----------44--44------44--44------|
--49--------51----------------------51--51------|
------------------------------------------------|
------------------------------------------------|
------------------------------------------------|


   Q     E   E   E   E   E   E   E   E   E   E   
--36----36--38--44--44--36--36--44--38--36--44--|
--44----51--44----------44--44------44--44------|
--49--------51----------------------51--51------|
------------------------------------------------|
------------------------------------------------|
------------------------------------------------|


   E   E   E   E   E   E      E.   S  S  S  E.      E.   
--36--44--36--38--44--36--38g38---47-45-43-41---45g45---|
--44------44--44------44--------------------------------|
--49----------------------------------------------------|
--------------------------------------------------------|
--------------------------------------------------------|
--------------------------------------------------------|


   Q     E   E   E   E   E   E   E   E   E   E   
--36----36--38--44--44--36--36--44--38--36--44--|
--44----51--44----------44--44------44--44------|
--49--------51----------------------51--51------|
------------------------------------------------|
------------------------------------------------|
------------------------------------------------|


   Q     E   E   E   E   E   E   E   E   E   E   
--36----36--38--44--44--36--36--44--38--36--44--|
--44----51--44----------44--44------44--44------|
--49--------51----------------------51--51------|
------------------------------------------------|
------------------------------------------------|
------------------------------------------------|


   E   E   E   E   E   E      E.   S  S  S  E.      E.   
--36--44--36--38--44--36--38g38---47-45-43-41---45g45---|
--44------44--44------44--------------------------------|
--49----------------------------------------------------|
--------------------------------------------------------|
--------------------------------------------------------|
--------------------------------------------------------|


   Q     E   E   E   E   E   E   E   E   E   E   
--36----36--38--44--44--36--36--44--38--36--44--|
--44----51--44----------44--44------44--44------|
--49--------51----------------------51--51------|
------------------------------------------------|
------------------------------------------------|
------------------------------------------------|


   Q     E   E   E   E   E   E   E   E   E   E   
--36----36--38--44--44--36--36--44--38--36--44--|
--44----51--44----------44--44------44--44------|
--49--------51----------------------51--51------|
------------------------------------------------|
------------------------------------------------|
------------------------------------------------|


   E   E   E   E   E   E      E.   S  S  S  E.      E.   
--36--44--36--38--44--36--38g38---47-45-43-41---45g45---|
--44------44--44------44--------------------------------|
--49----------------------------------------------------|
--------------------------------------------------------|
--------------------------------------------------------|
--------------------------------------------------------|


    Puente                                                                   
    S      S    S    S    S    S    S    S    S    S    S    S   S  S  S  S  
--(38)---(38)-(38)-(38)-(38)-(38)-(38)-(38)-(38)-(38)-(38)-(38)-38-38-38-38-|
----------------------------------------------------------------------------|
----------------------------------------------------------------------------|
----------------------------------------------------------------------------|
----------------------------------------------------------------------------|
----------------------------------------------------------------------------|


   S  S  S  S  S  S  S  S  S  S  S  S  S  S  S  S  
--38-38-38-38-38-38-38-38-38-38-38-38-38-38-38-38-|
--------------------------------------------------|
--------------------------------------------------|
--------------------------------------------------|
--------------------------------------------------|
--------------------------------------------------|


   S  S  S  S  S  S  S  S  S  S  S  S  S  S  S  S  
--38-38-38-38-38-38-38-38-38-38-38-38-38-38-38-38-|
--------------------------------------------------|
--------------------------------------------------|
--------------------------------------------------|
--------------------------------------------------|
--------------------------------------------------|


   Riff B                                                                      
   S      S  S  S  S  S  S  S  S  S  S  S  S  S  S  S  S  S  S  S  S  S  S  S  
--36-----44-36-38-36-44-36-44-36-38-44-36-36-44-36-38-36-44-36-44-36-38-44-36-|
--44--------44-44-44----44----44-44----44-44----44-44-44----44----44-44----44-|
--49-----------46----------------46----------------46----------------46-------|
------------------------------------------------------------------------------|
------------------------------------------------------------------------------|
------------------------------------------------------------------------------|


   S  S  S  S  S  S  S  S  S  S  S  S  S  S  S  S  S  S  S  S  S  S  S  S  
--36-44-36-38-36-44-36-44-36-38-44-36-36-44-36-38-36-44-36-44-36-38-44-36-|
--44----44-44-44----44----44-44----44-44----44-44-44----44----44-44----44-|
--49-------46----------------46----------------46----------------46-------|
--------------------------------------------------------------------------|
--------------------------------------------------------------------------|
--------------------------------------------------------------------------|


   S  S  S  S  S  S  S  S  S  S  S  S  S  S  S  S  S  S  S  S  S  S  S  S  
--36-44-36-38-36-44-36-44-36-38-44-36-36-44-36-38-36-44-36-44-36-38-44-36-|
--44----44-44-44----44----44-44----44-44----44-44-44----44----44-44----44-|
--49-------46----------------46----------------46----------------46-------|
--------------------------------------------------------------------------|
--------------------------------------------------------------------------|
--------------------------------------------------------------------------|


   S  S  S  S  S  S  S  S  S  S  S  S  S  S  S  S  S  S  S  S  S  S  S  S  
--36-44-36-38-36-44-36-44-36-38-44-36-36-44-36-38-36-44-36-44-38-38-38-38-|
--44----44-44-44----44----44-44----44-44----44-44-44----44----44-44----44-|
--49-------46----------------46----------------46----------------46-------|
--------------------------------------------------------------------------|
--------------------------------------------------------------------------|
--------------------------------------------------------------------------|


   Verso Riff 5                                                                 
   S            S  S  S  S  S  S  S  S  S  S  S  S  S  S  S  S  S  S  S  S  S  S
--36-----------44-36-38-36-44-36-44-36-38-44-36-36-44-36-38-36-44-36-44-36-38-44
--44--------------44-44-44----44----44-44----44-44----44-44-44----44----44-44---
--49-----------------46----------------46----------------46----------------46---
--------------------------------------------------------------------------------
--------------------------------------------------------------------------------
--------------------------------------------------------------------------------


   S  S  S  S  S  S  S  S  S  S  S  S  S  S  S  S  S  S  S  S  S  S  S  S  
--36-44-36-38-36-44-36-44-36-38-44-36-36-44-36-38-36-44-36-44-36-38-44-36-|
--44----44-44-44----44----44-44----44-44----44-44-44----44----44-44----44-|
--49-------46----------------46----------------46----------------46-------|
--------------------------------------------------------------------------|
--------------------------------------------------------------------------|
--------------------------------------------------------------------------|


   S  S  S  S  S  S  S  S  S  S  S  S  S  S  S  S  S  S  S  S  S  S  S  S  
--36-44-36-38-36-44-36-44-36-38-44-36-36-44-36-38-36-44-36-44-36-38-44-36-|
--44----44-44-44----44----44-44----44-44----44-44-44----44----44-44----44-|
--49-------46----------------46----------------46----------------46-------|
--------------------------------------------------------------------------|
--------------------------------------------------------------------------|
--------------------------------------------------------------------------|


   S  S  S  S  S  S  S  S  S  S  S  S  S  S  S  S  S  S  S  S  S  S  S  S  
--36-44-36-38-36-44-36-44-36-38-44-36-36-44-36-38-36-44-36-44-36-38-44-36-|
--44----44-44-44----44----44-44----44-44----44-44-44----44----44-44----44-|
--49-------46----------------46----------------46----------------46-------|
--------------------------------------------------------------------------|
--------------------------------------------------------------------------|
--------------------------------------------------------------------------|


   S  S  S  S  S  S  S  S  S  S  S  S  S  S  S  S  S  S  S  S  S  S  S  S  
--36-44-36-38-36-44-36-44-36-38-44-36-36-44-36-38-36-44-36-44-36-38-44-36-|
--44----44-44-44----44----44-44----44-44----44-44-44----44----44-44----44-|
--49-------46----------------46----------------46----------------46-------|
--------------------------------------------------------------------------|
--------------------------------------------------------------------------|
--------------------------------------------------------------------------|


   S  S  S  S  S  S  S  S  S  S  S  S  S  S  S  S  S  S  S  S  S  S  S  S  
--36-44-36-38-36-44-36-44-36-38-44-36-36-44-36-38-36-44-36-44-36-38-44-36-|
--44----44-44-44----44----44-44----44-44----44-44-44----44----44-44----44-|
--49-------46----------------46----------------46----------------46-------|
--------------------------------------------------------------------------|
--------------------------------------------------------------------------|
--------------------------------------------------------------------------|


   S  S  S  S  S  S  S  S  S  S  S  S  S  S  S  S  S  S  S  S  S  S  S  S  
--36-44-36-38-36-44-36-44-36-38-44-36-36-44-36-38-36-44-36-44-36-38-44-36-|
--44----44-44-44----44----44-44----44-44----44-44-44----44----44-44----44-|
--49-------46----------------46----------------46----------------46-------|
--------------------------------------------------------------------------|
--------------------------------------------------------------------------|
--------------------------------------------------------------------------|


   S  S  S  S  S  S  S  S  S  S  S  S  S  S  S  S  S  S  S  S  S  S  S  S  
--36-44-36-38-36-44-36-44-36-38-44-36-36-44-36-38-36-44-36-44-36-38-44-36-|
--44----44-44-44----44----44-44----44-44----44-44-44----44----44-44----44-|
--49-------46----------------46----------------46----------------46-------|
--------------------------------------------------------------------------|
--------------------------------------------------------------------------|
--------------------------------------------------------------------------|


   S  S  S  S  S  S  S  S  S  S  S  S  S  S  S  S  S  S  S  S  S  S  S  S  
--36-44-36-38-36-44-36-44-36-38-44-36-36-44-36-38-36-44-36-44-36-38-44-36-|
--44----44-44-44----44----44-44----44-44----44-44-44----44----44-44----44-|
--49-------46----------------46----------------46----------------46-------|
--------------------------------------------------------------------------|
--------------------------------------------------------------------------|
--------------------------------------------------------------------------|


   S  S  S  S  S  S  S  S  S  S  S  S  S  S  S  S  S  S  S  S  S  S  S  S  
--36-44-36-38-36-44-36-44-36-38-44-36-36-44-36-38-36-44-36-44-36-38-44-36-|
--44----44-44-44----44----44-44----44-44----44-44-44----44----44-44----44-|
--49-------46----------------46----------------46----------------46-------|
--------------------------------------------------------------------------|
--------------------------------------------------------------------------|
--------------------------------------------------------------------------|


   S  S  S  S  S  S  S  S  S  S  S  S  S  S  S  S  S  S  S  S  S  S  S  S  
--36-44-36-38-36-44-36-44-36-38-44-36-36-44-36-38-36-44-36-44-36-38-44-36-|
--44----44-44-44----44----44-44----44-44----44-44-44----44----44-44----44-|
--49-------46----------------46----------------46----------------46-------|
--------------------------------------------------------------------------|
--------------------------------------------------------------------------|
--------------------------------------------------------------------------|


   Solo 2 Adrian Smith                                                          
   S                   S  S  S  S  S  S  S  S  S  S  S  S  S  S  S  S  S  S  S  
--36------------------44-36-38-36-44-36-44-36-38-44-36-36-44-36-38-36-44-36-44-3
--44---------------------44-44-44----44----44-44----44-44----44-44-44----44----4
--49------------------------46----------------46----------------46--------------
--------------------------------------------------------------------------------
--------------------------------------------------------------------------------
--------------------------------------------------------------------------------


   S  S  S  S  S  S  S  S  S  S  S  S  S  S  S  S  S  S  S  S  S  S  S  S  
--36-44-36-38-36-44-36-44-36-38-44-36-36-44-36-38-36-44-36-44-36-38-44-36-|
--44----44-44-44----44----44-44----44-44----44-44-44----44----44-44----44-|
--49-------46----------------46----------------46----------------46-------|
--------------------------------------------------------------------------|
--------------------------------------------------------------------------|
--------------------------------------------------------------------------|


   S  S  S  S  S  S  S  S  S  S  S  S  S  S  S  S  S  S  S  S  S  S  S  S  
--36-44-36-38-36-44-36-44-36-38-44-36-36-44-36-38-36-44-36-44-36-38-44-36-|
--44----44-44-44----44----44-44----44-44----44-44-44----44----44-44----44-|
--49-------46----------------46----------------46----------------46-------|
--------------------------------------------------------------------------|
--------------------------------------------------------------------------|
--------------------------------------------------------------------------|


   S  S  S  S  S  S  S  S  S  S  S  S  S  S  S  S  S  S  S  S  S  S  S  S  
--36-44-36-38-36-44-36-44-36-38-44-36-36-44-36-38-36-44-36-44-36-38-44-36-|
--44----44-44-44----44----44-44----44-44----44-44-44----44----44-44----44-|
--49-------46----------------46----------------46----------------46-------|
--------------------------------------------------------------------------|
--------------------------------------------------------------------------|
--------------------------------------------------------------------------|


   S  S  S  S  S  S  S  S  S  S  S  S  S  S  S  S  S  S  S  S  S  S  S  S  
--36-44-36-38-36-44-36-44-36-38-44-36-36-44-36-38-36-44-36-44-36-38-44-36-|
--44----44-44-44----44----44-44----44-44----44-44-44----44----44-44----44-|
--49-------46----------------46----------------46----------------46-------|
--------------------------------------------------------------------------|
--------------------------------------------------------------------------|
--------------------------------------------------------------------------|


   S  S  S  S  S  S  S  S  S  S  S  S  S  S  S  S  S  S  S  S  S  S  S  S  
--36-44-36-38-36-44-36-44-36-38-44-36-36-44-36-38-36-44-36-44-36-38-44-36-|
--44----44-44-44----44----44-44----44-44----44-44-44----44----44-44----44-|
--49-------46----------------46----------------46----------------46-------|
--------------------------------------------------------------------------|
--------------------------------------------------------------------------|
--------------------------------------------------------------------------|


   S  S  S  S  S  S  S  S  S  S  S  S  S  S  S  S  S  S  S  S  S  S  S  S  
--36-44-36-38-36-44-36-44-36-38-44-36-36-44-36-38-36-44-36-44-36-38-44-36-|
--44----44-44-44----44----44-44----44-44----44-44-44----44----44-44----44-|
--49-------46----------------46----------------46----------------46-------|
--------------------------------------------------------------------------|
--------------------------------------------------------------------------|
--------------------------------------------------------------------------|


   S  S  S  S  S  S  S  S  S  S  S  S  S  S  S  S  S  S  S  S  S  S  S  S  
--36-44-36-38-36-44-36-44-36-38-44-36-36-44-36-38-36-44-36-44-36-38-44-36-|
--44----44-44-44----44----44-44----44-44----44-44-44----44----44-44----44-|
--49-------46----------------46----------------46----------------46-------|
--------------------------------------------------------------------------|
--------------------------------------------------------------------------|
--------------------------------------------------------------------------|


   S  S  S  S  S  S  S  S  S  S  S  S  S  S  S  S  S  S  S  S  S  S  S  S  
--36-44-36-38-36-44-36-44-36-38-44-36-36-44-36-38-36-44-36-44-36-38-44-36-|
--44----44-44-44----44----44-44----44-44----44-44-44----44----44-44----44-|
--49-------46----------------46----------------46----------------46-------|
--------------------------------------------------------------------------|
--------------------------------------------------------------------------|
--------------------------------------------------------------------------|


   S  S  S  S  S  S  S  S  S  S  S  S  S  S  S  S  S  S  S  S  S  S  S  S  
--36-44-36-38-36-44-36-44-36-38-44-36-36-44-36-38-36-44-36-44-36-38-44-36-|
--44----44-44-44----44----44-44----44-44----44-44-44----44----44-44----44-|
--49-------46----------------46----------------46----------------46-------|
--------------------------------------------------------------------------|
--------------------------------------------------------------------------|
--------------------------------------------------------------------------|


   S  S  S  S  S  S  S  S  S  S  S  S  S  S  S  S  S  S  S  S  S  S  S  S  
--36-44-36-38-36-44-36-44-36-38-44-36-36-44-36-38-36-44-36-44-36-38-44-36-|
--44----44-44-44----44----44-44----44-44----44-44-44----44----44-44----44-|
--49-------46----------------46----------------46----------------46-------|
--------------------------------------------------------------------------|
--------------------------------------------------------------------------|
--------------------------------------------------------------------------|


   S  S  S  S  S  S  S  S  S  S  S  S  S  S  S  S  S  S  S  S  S  S  S  S  
--36-44-36-38-36-44-36-44-36-38-44-36-36-44-36-38-36-44-36-44-36-38-44-36-|
--44----44-44-44----44----44-44----44-44----44-44-44----44----44-44----44-|
--49-------46----------------46----------------46----------------46-------|
--------------------------------------------------------------------------|
--------------------------------------------------------------------------|
--------------------------------------------------------------------------|


   S  S  S  S  S  S  S  S  S  S  S  S  S  S  S  S  S  S  S  S  S  S  S  S  
--36-44-36-38-36-44-36-44-36-38-44-36-36-44-36-38-36-44-36-44-36-38-44-36-|
--44----44-44-44----44----44-44----44-44----44-44-44----44----44-44----44-|
--49-------46----------------46----------------46----------------46-------|
--------------------------------------------------------------------------|
--------------------------------------------------------------------------|
--------------------------------------------------------------------------|


   S  S  S  S  S  S  S  S  S  S  S  S  S  S  S  S  S  S  S  S  S  S  S  S  
--36-44-36-38-36-44-36-44-36-38-44-36-36-44-36-38-36-44-36-44-36-38-44-36-|
--44----44-44-44----44----44-44----44-44----44-44-44----44----44-44----44-|
--49-------46----------------46----------------46----------------46-------|
--------------------------------------------------------------------------|
--------------------------------------------------------------------------|
--------------------------------------------------------------------------|


   S  S  S  S  S  S  S  S  S  S  S  S  S  S  S  S  S  S  S  S  S  S  S  S  
--36-44-36-38-36-44-36-44-36-38-44-36-36-44-36-38-36-44-36-44-36-38-44-36-|
--44----44-44-44----44----44-44----44-44----44-44-44----44----44-44----44-|
--49-------46----------------46----------------46----------------46-------|
--------------------------------------------------------------------------|
--------------------------------------------------------------------------|
--------------------------------------------------------------------------|


                                             Outro                      
   S  S  S  S  S  S  S  S  S  S  S  S        E.   S  S  S  E.      E.   
--36-44-36-38-36-44-36-44-36-38-44-36-|--38g38---47-45-43-41---45g45---|
--44----44-44-44----44----44-44----44-|--------------------------------|
--49-------46----------------46-------|--------------------------------|
--------------------------------------|--------------------------------|
--------------------------------------|--------------------------------|
--------------------------------------|--------------------------------|


   W                 
--38----------------|
--36----------------|
--46----------------|
--49----------------|
--------------------|
--------------------|


  H         T  T  T  T  T  T  T  T  T  T  T  T   T    T    T    T   
--L--------44-44-44-44-44-42-42-42-42-42-42-42-(46)-(46)-(46)-(46)-|
--L----------------------------------------------------------------|
--L----------------------------------------------------------------|
--L----------------------------------------------------------------|
-------------------------------------------------------------------|
-------------------------------------------------------------------|


   T  T  T  T  T  T  T  T  T  T  T  T  T  T  T  T     Q     E   E      Q      
--42-42-42-42-44-44-44-44-44-44-44-44-44-44-44-44-38g38----38--38--|---L----||
-----------------------------------------------------------46--36--|---L----||
-----------------------------------------------------------49--46--|---L----||
---------------------------------------------------------------49--|---L----||
-------------------------------------------------------------------|--------||
-------------------------------------------------------------------|--------||




Drums Legend:
---------------
Drums:

31...Sticks
37...Side Stick
38...Snare
40...Electric Snare
35...Acoustic Bass Drum
36...Bass Drum
41...Low Floor Tom
43...High Floor Tom
45...Low Tom
47...Low-Mid Tom
48...Hi-Mid Tom
50...High Tom


Cymbals:

42...Closed Hi Hat
44...Pedal Hi Hat
46...Open Hi Hat
49...Crash Cymbal 1
51...Ride Cymbal 1
52...Chinese Cymbal
55...Splash Cymbal
57...Crash Cymbal 2
59...Ride Cymbal 2


Others:

27...High Q
28...Slap
29...Scratch Push
30...Scratch Pull
32...Square Click
33...Metronome Click
34...Metronome Bell
39...Hand Clap
53...Ride Bell
54...Tambourine
56...Cowbell
58...Vibraslap
60...High Bongo
61...Low Bongo
62...Mute High Conga
63...Open High Conga
64...Low Conga
65...High Timbale
66...Low Timbale
67...High Agogo
68...Low Agogo
69...Cabasa
70...Maracas
71...Short Whistle
72...Long Whistle
73...Short Guiro
74...Long Guiro
75...Claves
76...High Wood Block
77...Low Wood Block
78...Mute Cuica
79...Open Cuica
80...Mute Triangle
81...Open Triangle
82...Shaker
83...Jingle Bell
84...Bell Tree
85...Castinets
86...Mute Surdo
87...Open Surdo



Duration Legend
---------------
W - whole
H - half
Q - quarter
E - 8th
S - 16th
T - 32nd
X - 64th
. - note dotted
|-n-|  - n-tuplets



Tablature Legend
----------------
L - tied note
x - dead note
g - grace note
(n) - ghost note
> - accentuded note
NH - natural harmonic
AH - artificial harmonic
TH - tapped harmonic
SH - semi harmonic
PH - pitch harmonic
h - hammer on
p - pull off
b - bend
br - bendRelease
pb - preBend
pbr - preBendRelease
brb - bendReleaseBend
\n/ - tremolo bar dip
\n - tremolo bar dive
-/n - tremolo bar Release up
/n\ - tremolo bar inverted dip
/n - tremolo bar return
-\n - tremolo bar Release down
S - shift slide
s - legato slide
/ -  slide into from below or out of upwards
\ -  slide into from above or out of downwards
~ - vibrato
W - wide vibrato
tr - trill
TP - tremolo picking
T - tapping
S - slap
P - pop
< - fade in
^ - brush up
v - brush down

            
            
Suggest correction
Creating personal tab
Creating personal tab
You can edit any tab online and save it as your Personal.

You can edit, replace or remove any tab part or add personal notes – all changes will be seen only by you.

Personal tabs can be accessed anytime from any device, even offline.
Learn more »
comments
print report bad tab
guest
You may want to rate the tab now too:
select rating
Wanna post a correction for this tab? Suggest correction