Oops, an error
Loading. Please wait.

22 Acacia Avenue bass

version 3
version 3
383 views 9 this week
no commentswrite comment
1 2 3 4 5
x 11
add to favorites
×
Save as Personal and add changes to this tab that will be seen only by you. Learn more ›
×
You can save this tab as Personal to edit and correct it or add notes. All changes will be seen only by you. Learn more »
launch autoscroll
font size
0
reset
guitar tuner
edit
Autoscroll
slow
fast
+/-
esc
set tempo
stop
Author
Difficulty
                               22 Acacia Avenue                                 


                                  Iron Maiden

Steve Harris



          Intro                                   
     S    W                   H.           E.  S  
G||----|-------------------|---------------------|
D||----|-------------------|---------------------|
A||----|-------------------|-------------------5-|
E||----|-------------------|---------------------|


  Verso Riff 1                                              
  S            E.  H.              S H        E  E  E  T T  
--------------------------------|--------------------------|
--------------------------------|--------------------------|
--7-----------------------------|--5-------------5--5--7-7-|
--------------------------------|--------------------------|


  S E.  H.              S H        E  E  E  T T    S H.           E  T T  
---------------------|--------------------------|------------------------|
---------------------|--------------------------|------------------------|
--7------------------|--5-------------5--5--3-3-|--3--------------5--7-7-|
---------------------|--------------------------|------------------------|


                             Verso Riff 2                             
                             >                        >               
  S E.  H           S S S    E            S S S S S S E  S S S S S S  
-----------------|--------|------------------------------------------|
-----------------|--------|------------------------------------------|
--7--------------|--7-6-5-|--3------------3-3-3-3-3-3-5--5-5-5-5-5-5-|
-----------------|--------|------------------------------------------|


  >                                 >               >                
  E  S S S S S S S S S S S S S S    E  S S S S S  S E  S S S S S  S  
---------------------------------|----------------------------------|
---------------------------------|-------------3s-5------------5s-7-|
--7--7-7-7-7-7-7-7-7-7-7-7-7-6-5-|--3--3-3-3-3------5--5-5-5-5------|
---------------------------------|----------------------------------|


                                    >                                
  E  S S S S S S S S S S S S S S    E  S S S S S  S E  S S S S S  S  
---------------------------------|----------------------------------|
---------------------------------|-------------3s-5------------5s-7-|
--5--7-7-7-7-7-7-7-7-7-7-7-7-6-5-|--3--3-3-3-3------5--5-5-5-5------|
---------------------------------|----------------------------------|


                                    >                                
  E  S S S S S S S S S S S S S S    E  S S S S S  S E  S S S S S  S  
---------------------------------|----------------------------------|
---------------------------------|-------------3s-5------------5s-7-|
--5--7-7-7-7-7-7-7-7-7-7-7-7-6-5-|--3--3-3-3-3------5--5-5-5-5------|
---------------------------------|----------------------------------|


                                    >              >               
  E  S S S S S S S S S S S S S S    E  S S S S S S E  S S S S S S  
---------------------------------|--------------------------------|
---------------------------------|--------------------------------|
--5--7-7-7-7-7-7-7-7-7-7-7-7-6-5-|--3--3-3-3-3-3-3-5--5-5-5-5-5-5-|
---------------------------------|--------------------------------|


  Break                                         Verso Riff 1                   
  S     E.  H.              W                   S            E.  H.            
-------------------------|-------------------|--------------------------------|
-------------------------|-------------------|--------------------------------|
--7----------------------|-------------------|--7-----------------------------|
-------------------------|-------------------|--------------------------------|


  H        E.  E  E  T T    S E.  H.              H        E.  E  E  T T  
-------------------------|---------------------|-------------------------|
-------------------------|---------------------|-------------------------|
--5--------L---5--5--7-7-|--7------------------|--5--------L---5--5--3-3-|
-------------------------|---------------------|-------------------------|


  S H.           E  T T    S E.  H           S S S  
------------------------|-----------------|--------|
------------------------|-----------------|--------|
--3--------------5--7-7-|--7--------------|--7-6-5-|
------------------------|-----------------|--------|


  Verso Riff 2                                                               
  >                        >                 >                               
  E            S S S S S S E  S S S S S S    E  S S S S S S S S S S S S S S  
------------------------------------------|---------------------------------|
------------------------------------------|---------------------------------|
--3------------3-3-3-3-3-3-5--5-5-5-5-5-5-|--7--7-7-7-7-7-7-7-7-7-7-7-7-6-5-|
------------------------------------------|---------------------------------|


  >               >                                                  
  E  S S S S S  S E  S S S S S  S    E  S S S S S S S S S S S S S S  
----------------------------------|---------------------------------|
-------------3s-5------------5s-7-|---------------------------------|
--3--3-3-3-3------5--5-5-5-5------|--5--7-7-7-7-7-7-7-7-7-7-7-7-6-5-|
----------------------------------|---------------------------------|


  >                                                                  
  E  S S S S S  S E  S S S S S  S    E  S S S S S S S S S S S S S S  
----------------------------------|---------------------------------|
-------------3s-5------------5s-7-|---------------------------------|
--3--3-3-3-3------5--5-5-5-5------|--5--7-7-7-7-7-7-7-7-7-7-7-7-6-5-|
----------------------------------|---------------------------------|


  >                                                                  
  E  S S S S S  S E  S S S S S  S    E  S S S S S S S S S S S S S S  
----------------------------------|---------------------------------|
-------------3s-5------------5s-7-|---------------------------------|
--3--3-3-3-3------5--5-5-5-5------|--5--7-7-7-7-7-7-7-7-7-7-7-7-6-5-|
----------------------------------|---------------------------------|


                                   Break                         
  >              >                                               
  E  S S S S S S E  S S S S S S    H.              H.            
--------------------------------|---------------|---------------|
--------------------------------|---------------|---------------|
--3--3-3-3-3-3-3-5--5-5-5-5-5-5-|---------------|---------------|
--------------------------------|--0------------|--L------------|


  Riff A                                             
  W.                  W                Q    S  E.    
-------------------|--------------------------------|
-------------------|--------------------------------|
-------------------|--------------------------12\---|
-------------------|--------------------------------|


  Verso Riff 3                                                
                   >           >           >           > > >  
  S            S S S S S S S S S S S S S S S S S S S S S S S  
-------------------------------------------------------------|
---------------------------------------------------------4-5-|
--5------------7-7-7-7-7-7-7-7-7-7-7-7-7-7-7-7-7-7-7-7-7-----|
-------------------------------------------------------------|


        >           >           >           >      
  S S S S S S S S S S S S S S S S S S S S S S S S  
--------------------------------------------------|
--------------------------------------------------|
--7-7-7-7-7-7-7-7-7-7-7-7-7-7-7-7-7-7-7-7-7-7-7-7-|
--------------------------------------------------|


  S S S S S S S S S S S S S S S S S S S S S S S S  
--------------------------------------------------|
--------5-5-5-4-4-4-5-5-5-------5-5-5-4-4-4-5-5-5-|
--3-3-3-------------------3-3-3-------------------|
--------------------------------------------------|


      >            >            >                     
  S S S  S S S S S S  S S S S S S  S S S S S S S S S  
-----------------------------------------------------|
-----------------------------------------------------|
--7-7-5h-7-7-7-7-7-5h-7-7-7-7-7-5h-7-7-7-7-7-7-7-7-7-|
-----------------------------------------------------|


  >           >           >           >     > > >  
  S S S S S S S S S S S S S S S S S S S S S S S S  
--------------------------------------------------|
----------------------------------------------4-5-|
--7-7-7-7-7-7-7-7-7-7-7-7-7-7-7-7-7-7-7-7-7-7-----|
--------------------------------------------------|


  >           >           >           >            
  S S S S S S S S S S S S S S S S S S S S S S S S  
--------------------------------------------------|
--------------------------------------------------|
--7-7-7-7-7-7-7-7-7-7-7-7-7-7-7-7-7-7-7-7-7-7-7-7-|
--------------------------------------------------|


  S S S S S S S S S S S S S S S S S S S S S S S S  
--------------------------------------------------|
--------5-5-5-4-4-4-5-5-5-------5-5-5-4-4-4-5-5-5-|
--3-3-3-------------------3-3-3-------------------|
--------------------------------------------------|


      >            >            >              >       
  S S S  S S S S S S  S S S S S S  S S S S S S S  S S  
------------------------------------------------------|
------------------------------------------------------|
--7-7-5h-7-7-7-7-7-5h-7-7-7-7-7-5h-7-7-7-7-7-7-5h-7---|
----------------------------------------------------7-|


  Coro                                           
  >                       >                      
  E    E  S S S S S S S S E  E  S S S S S S S S  
------------------------------------------------|
------------------------------------------------|
--3----3--3-3-3-3-3-3-3-3-5--5--5-5-5-5-5-5-5-5-|
------------------------------------------------|


  >                     >                      
  E  E  S S S S S S S S E  E  S S S S S S S S  
----------------------------------------------|
----------------------------------------------|
--2--2--2-2-2-2-2-2-2-2-3--3--3-3-3-3-3-3-3-3-|
----------------------------------------------|


  >                     >                      
  E  E  S S S S S S S S E  E  S S S S S S S S  
----------------------------------------------|
----------------------------------------------|
--3--3--3-3-3-3-3-3-3-3-5--5--5-5-5-5-5-5-5-5-|
----------------------------------------------|


  E  S S S S S S S S S S E  S S S S S S S S S S  
------------------------------------------------|
------------------------------------------------|
--5--7-7-7-7-7-7-7-7-7-7-5--7-7-7-7-7-7-7-7-7-7-|
------------------------------------------------|


  >                     >                      
  E  E  S S S S S S S S E  E  S S S S S S S S  
----------------------------------------------|
----------------------------------------------|
--3--3--3-3-3-3-3-3-3-3-5--5--5-5-5-5-5-5-5-5-|
----------------------------------------------|


  >                     >                      
  E  E  S S S S S S S S E  E  S S S S S S S S  
----------------------------------------------|
----------------------------------------------|
--2--2--2-2-2-2-2-2-2-2-3--3--3-3-3-3-3-3-3-3-|
----------------------------------------------|


  >                     >                      
  E  E  S S S S S S S S E  E  S S S S S S S S  
----------------------------------------------|
----------------------------------------------|
--3--3--3-3-3-3-3-3-3-3-5--5--5-5-5-5-5-5-5-5-|
----------------------------------------------|


      >            >            >                     
  S S S  S S S S S S  S S S S S S  S S S S S S S S S  
-----------------------------------------------------|
-----------------------------------------------------|
--7-7-5h-7-7-7-7-7-5h-7-7-7-7-7-5h-7-7-7-7-7-7-7-7-7-|
-----------------------------------------------------|


  Verso Riff 3                                                
                   >           >           >           > > >  
  S            S S S S S S S S S S S S S S S S S S S S S S S  
-------------------------------------------------------------|
---------------------------------------------------------4-5-|
--5h-----------7-7-7-7-7-7-7-7-7-7-7-7-7-7-7-7-7-7-7-7-7-----|
-------------------------------------------------------------|


        >           >           >           >      
  S S S S S S S S S S S S S S S S S S S S S S S S  
--------------------------------------------------|
--------------------------------------------------|
--7-7-7-7-7-7-7-7-7-7-7-7-7-7-7-7-7-7-7-7-7-7-7-7-|
--------------------------------------------------|


  S S S S S S S S S S S S S S S S S S S S S S S S  
--------------------------------------------------|
--------5-5-5-4-4-4-5-5-5-------5-5-5-4-4-4-5-5-5-|
--3-3-3-------------------3-3-3-------------------|
--------------------------------------------------|


      >            >            >                     
  S S S  S S S S S S  S S S S S S  S S S S S S S S S  
-----------------------------------------------------|
-----------------------------------------------------|
--7-7-5h-7-7-7-7-7-5h-7-7-7-7-7-5h-7-7-7-7-7-7-7-7-7-|
-----------------------------------------------------|


  >     >           >           >           > > >  
  S S S S S S S S S S S S S S S S S S S S S S S S  
--------------------------------------------------|
----------------------------------------------4-5-|
--7-7-7-7-7-7-7-7-7-7-7-7-7-7-7-7-7-7-7-7-7-7-----|
--------------------------------------------------|


        >           >           >           >      
  S S S S S S S S S S S S S S S S S S S S S S S S  
--------------------------------------------------|
--------------------------------------------------|
--7-7-7-7-7-7-7-7-7-7-7-7-7-7-7-7-7-7-7-7-7-7-7-7-|
--------------------------------------------------|


  S S S S S S S S S S S S S S S S S S S S S S S S  
--------------------------------------------------|
--------5-5-5-4-4-4-5-5-5-------5-5-5-4-4-4-5-5-5-|
--3-3-3-------------------3-3-3-------------------|
--------------------------------------------------|


      >            >            >              >       
  S S S  S S S S S S  S S S S S S  S S S S S S S  S S  
------------------------------------------------------|
------------------------------------------------------|
--7-7-5h-7-7-7-7-7-5h-7-7-7-7-7-5h-7-7-7-7-7-7-5h-7---|
----------------------------------------------------7-|


  Coro                                           
  >                       >                      
  E    E  S S S S S S S S E  E  S S S S S S S S  
------------------------------------------------|
------------------------------------------------|
--3----3--3-3-3-3-3-3-3-3-5--5--5-5-5-5-5-5-5-5-|
------------------------------------------------|


  >                     >                      
  E  E  S S S S S S S S E  E  S S S S S S S S  
----------------------------------------------|
----------------------------------------------|
--2--2--2-2-2-2-2-2-2-2-3--3--3-3-3-3-3-3-3-3-|
----------------------------------------------|


  >                     >                      
  E  E  S S S S S S S S E  E  S S S S S S S S  
----------------------------------------------|
----------------------------------------------|
--3--3--3-3-3-3-3-3-3-3-5--5--5-5-5-5-5-5-5-5-|
----------------------------------------------|


  E  S S S S S S S S S S E  S S S S S S S S S S  
------------------------------------------------|
------------------------------------------------|
--5--7-7-7-7-7-7-7-7-7-7-5--7-7-7-7-7-7-7-7-7-7-|
------------------------------------------------|


  >                     >                      
  E  E  S S S S S S S S E  E  S S S S S S S S  
----------------------------------------------|
----------------------------------------------|
--3--3--3-3-3-3-3-3-3-3-5--5--5-5-5-5-5-5-5-5-|
----------------------------------------------|


  >                     >                      
  E  E  S S S S S S S S E  E  S S S S S S S S  
----------------------------------------------|
----------------------------------------------|
--2--2--2-2-2-2-2-2-2-2-3--3--3-3-3-3-3-3-3-3-|
----------------------------------------------|


  >                     >                      
  E  E  S S S S S S S S E  E  S S S S S S S S  
----------------------------------------------|
----------------------------------------------|
--3--3--3-3-3-3-3-3-3-3-5--5--5-5-5-5-5-5-5-5-|
----------------------------------------------|


  E.  E.  E.  E.  S S S S S S S S S S S S  
------------------5-4---4-----------------|
----------------------7---7-5-7-5-4-5-4---|
--2---2---2---2-------------------------5-|
------------------------------------------|


  Verso Riff 4                                             
  >                                >                       
  E            S S S S S S S S S S E  S S S S S S S S S S  
----------------------------------------------------------|
----------------------------------------------------------|
--5------------7-7-7-7-7-7-7-7-7-7-5--7-7-7-7-7-7-7-7-7-7-|
----------------------------------------------------------|


  >                                               
  E  S S S S S S S S S S S S S S S S S S S S S S  
-------------------------------------------------|
-------------------------5-5-5-4-4-4-5-5-5-4-4---|
--5--7-7-7-7-7-7-7-7-7-7-----------------------5-|
-------------------------------------------------|


  >                      >                       
  E  S S S S S S S S S S E  S S S S S S S S S S  
------------------------------------------------|
------------------------------------------------|
--5--7-7-7-7-7-7-7-7-7-7-5--7-7-7-7-7-7-7-7-7-7-|
------------------------------------------------|


  >                                               
  E  S S S S S S S S S S S S S S S S S S S S S S  
-------------------------------------------------|
-------------------------5-5-5-4-4-4-5-5-5-4-4---|
--5--7-7-7-7-7-7-7-7-7-7-----------------------5-|
-------------------------------------------------|


  >                      >                       
  E  S S S S S S S S S S E  S S S S S S S S S S  
------------------------------------------------|
------------------------------------------------|
--5--7-7-7-7-7-7-7-7-7-7-5--7-7-7-7-7-7-7-7-7-7-|
------------------------------------------------|


  >                                               
  E  S S S S S S S S S S S S S S S S S S S S S S  
-------------------------------------------------|
-------------------------5-5-5-4-4-4-5-5-5-4-4---|
--5--7-7-7-7-7-7-7-7-7-7-----------------------5-|
-------------------------------------------------|


  >                      >                       
  E  S S S S S S S S S S E  S S S S S S S S S S  
------------------------------------------------|
------------------------------------------------|
--5--7-7-7-7-7-7-7-7-7-7-5--7-7-7-7-7-7-7-7-7-7-|
------------------------------------------------|


  >                                               
  E  S S S S S S S S S S S S S S S S S S S S S S  
-------------------------------------------------|
-------------------------5-5-5-4-4-4-5-5-5-4-4---|
--5--7-7-7-7-7-7-7-7-7-7-----------------------5-|
-------------------------------------------------|


  H.           E.  S S S E.  E.   
---------------------------------|
---------------3---2-------------|
--7------------------3-2---------|
-------------------------3---2---|


  Solo 1 Dave Murray                                 
  Q                  T S. H.            S. S. S.  S. 
---------------------------------------11-12-11h-12-|
----------------------------------------------------|
-----------------------7--7-------------------------|
--0------------------L-L--0-------------------------|


   H.            Q.      S. S. S.  S.    H.           E.  S S S E.  E.   
--14-------------L------11-12-11h-12-|--12------------------------------|
--12-------------L-------------------|--10------------3---2-------------|
-------------------------------------|----------------------3-2---------|
-------------------------------------|--------------------------3---2---|


  Q    T S. H.            S. S. S.  S.    H.            Q.      S. S. S.  S. 
-------------------------11-12-11h-12-|--14-------------L------11-12-11h-12-|
--------------------------------------|--12-------------L-------------------|
---------7--7-------------------------|-------------------------------------|
--0----L-L--0-------------------------|-------------------------------------|


   H.           E.  S S S E.  E.     Q    T S. H.            S. S. S.  S. 
--12------------------------------|-------------------------11-12-11h-12-|
--10------------3---2-------------|--------------------------------------|
----------------------3-2---------|---------7--7-------------------------|
--------------------------3---2---|--0----L-L--0-------------------------|


   H.            Q.      S. S. S.  S.    H.           E.  S S S E.  E.   
--14-------------L------11-12-11h-12-|--12------------------------------|
--12-------------L-------------------|--10------------3---2-------------|
-------------------------------------|----------------------3-2---------|
-------------------------------------|--------------------------3---2---|


  Q    T S. H.            S. S. S.  S.    H.            Q.      S. S. S.  S. 
-------------------------11-12-11h-12-|--14-------------L------11-12-11h-12-|
--------------------------------------|--12-------------L-------------------|
---------7--7-------------------------|-------------------------------------|
--0----L-L--0-------------------------|-------------------------------------|


                                     Puente                                
   H.           E.  S S S E.  E.     S      S S S S S S S S S S S S S S S  
--12------------------------------|---------------------------------------|
--10------------3---2-------------|---------------------------------------|
----------------------3-2---------|---------------------------------------|
--------------------------3---2---|--0------0-0-0-0-0-0-0-0-0-0-0-0-0-0-0-|


  S S S S S S S S S S S S S S S S    S S S S S S S S S S S S S S S S  
----------------------------------|----------9-9-9-7-7-7-------------|
----------------------------------|----------------------9-9-9-7-7-7-|
----------------------------------|----------------------------------|
--0-0-0-0-0-0-0-0-0-0-0-0-0-0-0-0-|--0-0-0-0-------------------------|


  Riff B                                                   
  S      S S S S S S  S S S S S S  S S S S S S  S S S S S  
----------------------------------------------------------|
----------------------------------------------------------|
--5h-----7-7-7-7-7-5h-7-7-7-7-7-5h-7-7-7-7-7-5h-7-7-7-7-7-|
----------------------------------------------------------|


  S  S S S S S S  S S S S S S  S S S S S S  S S S S S  
------------------------------------------------------|
------------------------------------------------------|
--3h-5-5-5-5-5-3h-5-5-5-5-5-3h-5-5-5-5-5-3h-5-5-5-5-5-|
------------------------------------------------------|


  S  S S S S S S  S S S S S S  S S S S S S  S S S S S  
------------------------------------------------------|
------------------------------------------------------|
--1h-3-3-3-3-3-1h-3-3-3-3-3-3h-5-5-5-5-5-3h-5-5-5-5-5-|
------------------------------------------------------|


  S  S S S S S S  S S S S S S  S S S S S S S S S S S  
-----------------------------------------------------|
-----------------------------------------5-----------|
--5h-7-7-7-7-7-5h-7-7-7-7-7-5h-7-7-7-7-7---7-5-7-5---|
---------------------------------------------------7-|


  Verso Riff 5                                                   
  S            S S S S S S  S S S S S S  S S S S S S  S S S S S  
----------------------------------------------------------------|
----------------------------------------------------------------|
--5h-----------7-7-7-7-7-5h-7-7-7-7-7-5h-7-7-7-7-7-5h-7-7-7-7-7-|
----------------------------------------------------------------|


  S  S S S S S S  S S S S S S  S S S S S S  S S S S S  
------------------------------------------------------|
------------------------------------------------------|
--3h-5-5-5-5-5-3h-5-5-5-5-5-3h-5-5-5-5-5-3h-5-5-5-5-5-|
------------------------------------------------------|


  S  S S S S S S  S S S S S S  S S S S S S  S S S S S  
------------------------------------------------------|
------------------------------------------------------|
--1h-3-3-3-3-3-1h-3-3-3-3-3-3h-5-5-5-5-5-3h-5-5-5-5-5-|
------------------------------------------------------|


  S  S S S S S S  S S S S S S S S S S S S  S S S S S  
-----------------------------------------------------|
----------------------------5-5-5-7-7-7-5h-7-7-7-7-5-|
--5h-7-7-7-7-7-5h-7-7-7-7-7--------------------------|
-----------------------------------------------------|


  S  S S S S S S  S S S S S S  S S S S S S  S S S S S  
------------------------------------------------------|
------------------------------------------------------|
--5h-7-7-7-7-7-5h-7-7-7-7-7-5h-7-7-7-7-7-5h-7-7-7-7-7-|
------------------------------------------------------|


  S  S S S S S S  S S S S S S  S S S S S S  S S S S S  
------------------------------------------------------|
------------------------------------------------------|
--3h-5-5-5-5-5-3h-5-5-5-5-5-3h-5-5-5-5-5-3h-5-5-5-5-5-|
------------------------------------------------------|


  S  S S S S S S  S S S S S S  S S S S S S  S S S S S  
------------------------------------------------------|
------------------------------------------------------|
--1h-3-3-3-3-3-1h-3-3-3-3-3-3h-5-5-5-5-5-3h-5-5-5-5-5-|
------------------------------------------------------|


  S  S S S S S S  S S S S S S S S S S S S  S S S S S  
-----------------------------------------------------|
----------------------------5-5-5-7-7-7-5h-7-7-7-7-5-|
--5h-7-7-7-7-7-5h-7-7-7-7-7--------------------------|
-----------------------------------------------------|


  S  S S S S S S  S S S S S S  S S S S S S  S S S S S  
------------------------------------------------------|
------------------------------------------------------|
--5h-7-7-7-7-7-5h-7-7-7-7-7-5h-7-7-7-7-7-5h-7-7-7-7-7-|
------------------------------------------------------|


  S  S S S S S S  S S S S S S  S S S S S S  S S S S S  
------------------------------------------------------|
------------------------------------------------------|
--3h-5-5-5-5-5-3h-5-5-5-5-5-3h-5-5-5-5-5-3h-5-5-5-5-5-|
------------------------------------------------------|


  S  S S S S S S  S S S S S S  S S S S S S  S S S S S  
------------------------------------------------------|
------------------------------------------------------|
--1h-3-3-3-3-3-1h-3-3-3-3-3-3h-5-5-5-5-5-3h-5-5-5-5-5-|
------------------------------------------------------|


  Solo 2 Adrian Smith                                                   
  S                   S S S S S S  S S S S S S  S S S S S S  S S S S S  
-----------------------------------------------------------------------|
-----------------------------------------------------------------------|
--5h------------------7-7-7-7-7-5h-7-7-7-7-7-5h-7-7-7-7-7-5h-7-7-7-7-7-|
-----------------------------------------------------------------------|


  S  S S S S S S  S S S S S S  S S S S S S  S S S S S  
------------------------------------------------------|
------------------------------------------------------|
--5h-7-7-7-7-7-5h-7-7-7-7-7-5h-7-7-7-7-7-5h-7-7-7-7-7-|
------------------------------------------------------|


  S  S S S S S S  S S S S S S  S S S S S S  S S S S S  
------------------------------------------------------|
------------------------------------------------------|
--3h-5-5-5-5-5-3h-5-5-5-5-5-3h-5-5-5-5-5-3h-5-5-5-5-5-|
------------------------------------------------------|


  S  S S S S S S  S S S S S S  S S S S S S  S S S S S  
------------------------------------------------------|
------------------------------------------------------|
--1h-3-3-3-3-3-1h-3-3-3-3-3-3h-5-5-5-5-5-3h-5-5-5-5-5-|
------------------------------------------------------|


  S  S S S S S S  S S S S S S  S S S S S S  S S S S S  
------------------------------------------------------|
------------------------------------------------------|
--5h-7-7-7-7-7-5h-7-7-7-7-7-5h-7-7-7-7-7-5h-7-7-7-7-7-|
------------------------------------------------------|


  S  S S S S S S  S S S S S S  S S S S S S  S S S S S  
------------------------------------------------------|
------------------------------------------------------|
--5h-7-7-7-7-7-5h-7-7-7-7-7-5h-7-7-7-7-7-5h-7-7-7-7-7-|
------------------------------------------------------|


  S  S S S S S S  S S S S S S  S S S S S S  S S S S S  
------------------------------------------------------|
------------------------------------------------------|
--3h-5-5-5-5-5-3h-5-5-5-5-5-3h-5-5-5-5-5-3h-5-5-5-5-5-|
------------------------------------------------------|


  S  S S S S S S  S S S S S S  S S S S S S  S S S S S  
------------------------------------------------------|
------------------------------------------------------|
--1h-3-3-3-3-3-1h-3-3-3-3-3-3h-5-5-5-5-5-3h-5-5-5-5-5-|
------------------------------------------------------|


  S  S S S S S S  S S S S S S S S S S S S S S S S S  
----------------------------------------------7-7-7-|
----------------------------5-5-5-7-7-7-9-9-9-------|
--5h-7-7-7-7-7-5h-7-7-7-7-7-------------------------|
----------------------------------------------------|


  S  S S S S S S  S S S S S S  S S S S S S  S S S S S  
--7h-9-9-9-9-9-7h-9-9-9-9-9-7h-9-9-9-9-9-7h-9-9-9-9-9-|
------------------------------------------------------|
------------------------------------------------------|
------------------------------------------------------|


  S  S S S S S S  S S S S S S  S S S S S S  S S S S S  
--5h-7-7-7-7-7-5h-7-7-7-7-7-5h-7-7-7-7-7-5h-7-7-7-7-7-|
------------------------------------------------------|
------------------------------------------------------|
------------------------------------------------------|


  S  S S S S S S  S S S S S S  S S S S S S  S S S S S  
--3h-5-5-5-5-5-3h-5-5-5-5-5-5h-7-7-7-7-7-5h-7-7-7-7-7-|
------------------------------------------------------|
------------------------------------------------------|
------------------------------------------------------|


  S  S S S S S S S S S S S S S S S S S S S S S S S  
--7h-9-9-9-9-9-9-9-9-9-9-9-9-7---7-----------------|
-------------------------------9---9-7-9-7-5-7-5---|
-------------------------------------------------7-|
---------------------------------------------------|


  S  S S S S S S  S S S S S S  S S S S S S  S S S S S  
------------------------------------------------------|
------------------------------------------------------|
--5h-7-7-7-7-7-5h-7-7-7-7-7-5h-7-7-7-7-7-5h-7-7-7-7-7-|
------------------------------------------------------|


  S  S S S S S S  S S S S S S  S S S S S S  S S S S S  
------------------------------------------------------|
------------------------------------------------------|
--3h-5-5-5-5-5-3h-5-5-5-5-5-3h-5-5-5-5-5-3h-5-5-5-5-5-|
------------------------------------------------------|


                               Outro                                      
  S  S S S S S S  S S S S S    E.    S S S E.  E  S     W                 
----------------------------|------------------------|-------------------|
----------------------------|--3-----2---------------|-------------------|
--1h-3-3-3-3-3-1h-3-3-3-3-3-|----------3-2-----------|-------------------|
----------------------------|--------------3---2--L/-|--0----------------|


  S S S S S S S S S S S S S S S S    S S S S S S Q    E  E  E     E.   S   
----------------------------------|----------------------------|---------||
----------------------------------|----------------------------|---------||
----------------------------------|----------------------5--7--|--L\-----||
--0-0-0-0-0-0-0-0-0-0-0-0-0-0-0-0-|--0-0-0-0-0-0-0-------------|---------||




Duration Legend
---------------
W - whole
H - half
Q - quarter
E - 8th
S - 16th
T - 32nd
X - 64th
. - note dotted
|-n-|  - n-tuplets


Tablature Legend
----------------
L - tied note
x - dead note
g - grace note
(n) - ghost note
> - accentuded note
NH - natural harmonic
AH - artificial harmonic
TH - tapped harmonic
SH - semi harmonic
PH - pitch harmonic
h - hammer on
p - pull off
b - bend
br - bendRelease
pb - preBend
pbr - preBendRelease
brb - bendReleaseBend
\n/ - tremolo bar dip
\n - tremolo bar dive
-/n - tremolo bar Release up
/n\ - tremolo bar inverted dip
/n - tremolo bar return
-\n - tremolo bar Release down
S - shift slide
s - legato slide
/ -  slide into from below or out of upwards
\ -  slide into from above or out of downwards
~ - vibrato
W - wide vibrato
tr - trill
TP - tremolo picking
T - tapping
S - slap
P - pop
< - fade in
^ - brush up
v - brush down
Suggest correction
Creating personal tab
Creating personal tab
You can edit any tab online and save it as your Personal.

You can edit, replace or remove any tab part or add personal notes – all changes will be seen only by you.

Personal tabs can be accessed anytime from any device, even offline.
Learn more »
comments
print report bad tab
guest
You may want to rate the tab now too:
select rating
Wanna post a correction for this tab? Suggest correction