Oops, an error
Loading. Please wait.

22 Acacia Avenue tab

version 3
version 3
1,321 views 6 this week
no commentswrite comment
1 2 3 4 5
x 12
add to favorites
×
Save as Personal and add changes to this tab that will be seen only by you. Learn more ›
×
You can save this tab as Personal to edit and correct it or add notes. All changes will be seen only by you. Learn more »
launch autoscroll
font size
0
reset
how to read this tab
guitar tuner
edit
Autoscroll
slow
fast
+/-
esc
set tempo
stop
Author
Difficulty
                               22 Acacia Avenue           
                      

                                  Iron Maiden

Instruments:
- G #1
- G #2
- G #3
- Voice Melody



Guitar #1:

Adrian Smith

          Intro                                               
                PM PM PM PM PM PM PM PM PM PM PM PM PM PM PM  
     S    S     S  S  S  S  S  S  S  S  S  S  S  S  S  S  S   
E||----|-----------------------------------------------------|
B||----|-----------------------------------------------------|
G||----|--9--------------------------------------------------|
D||----|--9-----9--9--9--9--9--9--9--9--9--9--9--9--9--9--9--|
A||----|--7-----7--7--7--7--7--7--7--7--7--7--7--7--7--7--7--|
E||----|-----------------------------------------------------|


  PM PM PM PM PM PM PM PM PM PM PM PM PM PM PM    
  S  S  S  S  S  S  S  S  S  S  S  S  S  S  S  S  
-------------------------------------------------|
-------------------------------------------------|
-------------------------------------------------|
--9--9--9--9--9--9--9--9--9--9--9--9--9--9--9--7-|
--7--7--7--7--7--7--7--7--7--7--7--7--7--7--7--5-|
-------------------------------------------------|


  Verso Riff 1                                               
               PM PM PM PM PM PM PM PM PM PM PM PM PM PM PM  
  S            S  S  S  S  S  S  S  S  S  S  S  S  S  S  S   
------------------------------------------------------------|
------------------------------------------------------------|
--9---------------------------------------------------------|
--9------------9--9--9--9--9--9--9--9--9--9--9--9--9--9--9--|
--7------------7--7--7--7--7--7--7--7--7--7--7--7--7--7--7--|
------------------------------------------------------------|


    PM PM PM PM PM PM PM PM PM PM   PM         
  S S  S  S  S  S  S  S  S  S  S  S S  E  T T  
----------------------------------------------|
----------------------------------------------|
--7-------------------------------7----7------|
--7-7--7--7--7--7--7--7--7--7--7--7-7--7--9-9-|
--5-5--5--5--5--5--5--5--5--5--5--5-5--5--7-7-|
----------------------------------------------|


    PM PM PM PM PM PM PM PM PM PM PM PM PM PM PM  
  S S  S  S  S  S  S  S  S  S  S  S  S  S  S  S   
-------------------------------------------------|
-------------------------------------------------|
--9----------------------------------------------|
--9-9--9--9--9--9--9--9--9--9--9--9--9--9--9--9--|
--7-7--7--7--7--7--7--7--7--7--7--7--7--7--7--7--|
-------------------------------------------------|


    PM PM PM PM PM PM PM PM PM PM   PM         
  S S  S  S  S  S  S  S  S  S  S  S S  E  T T  
----------------------------------------------|
----------------------------------------------|
--7-------------------------------7----7------|
--7-7--7--7--7--7--7--7--7--7--7--7-7--7--5-5-|
--5-5--5--5--5--5--5--5--5--5--5--5-5--5--3-3-|
----------------------------------------------|


    PM PM PM PM PM PM PM PM PM PM PM PM         
  S S  S  S  S  S  S  S  S  S  S  S  S  E  T T  
-----------------------------------------------|
-----------------------------------------------|
--5-------------------------------------7------|
--5-5--5--5--5--5--5--5--5--5--5--5--5--7--9-9-|
--3-3--3--3--3--3--3--3--3--3--3--3--3--5--7-7-|
-----------------------------------------------|


    PM PM PM PM PM PM PM PM PM PM PM           
  S S  S  S  S  S  S  S  S  S  S  S     S S S  
-------------------------------------|--------|
-------------------------------------|--------|
--9----------------------------------|--------|
--9-9--9--9--9--9--9--9--9--9--9--9--|--9-8-7-|
--7-7--7--7--7--7--7--7--7--7--7--7--|--7-6-5-|
-------------------------------------|--------|


  Verso Riff 2                                                                
  E            S S S S S S E  S S S S S S    E   S S S S S S E   S S S S S S  
------------------------------------------|----------------------------------|
------------------------------------------|----------------------------------|
------------------------------------------|----------------------------------|
--5--------------5-----5-5-7----7-----7-7-|--7s--9---9---9-9-7s--9---9-------|
--3------------3-3-3-3-3-3-5--5-5-5-5-5-5-|--5s--7-7-7-7-7-7-5s--7-7-7-7-6-5-|
------------------------------------------|----------------------------------|


  E  S S S S S S E  S S S S S S    E   S S S S S S E   S S S S S S  
--------------------------------|----------------------------------|
--------------------------------|----------------------------------|
--------------------------------|--7s--9---9---9-9-7s--9---9-9-8-7-|
--5----5-----5-5-7----7-----7-7-|--7s--9-9-9-9-9-9-7s--9-9-9-------|
--3--3-3-3-3-3-3-5--5-5-5-5-5-5-|----------------------------------|
--------------------------------|----------------------------------|


  E  S S S S S S E  S S S S S S    E   S S S S S S E   S S S S S S  
--------------------------------|----------------------------------|
--------------------------------|----------------------------------|
--------------------------------|----------------------------------|
--5----5-----5-5-7----7-----7-7-|--7s--9---9---9-9-7s--9---9-------|
--3--3-3-3-3-3-3-5--5-5-5-5-5-5-|--5s--7-7-7-7-7-7-5s--7-7-7-7-6-5-|
--------------------------------|----------------------------------|


  E  S S S S S S E  S S S S S S    E   S S S S S S E   S S S S S S  
--------------------------------|----------------------------------|
--------------------------------|----------------------------------|
--------------------------------|--7s--9---9---9-9-7s--9---9-9-8-7-|
--5----5-----5-5-7----7-----7-7-|--7s--9-9-9-9-9-9-7s--9-9-9-------|
--3--3-3-3-3-3-3-5--5-5-5-5-5-5-|----------------------------------|
--------------------------------|----------------------------------|


  E  S S S S S S E  S S S S S S  
--------------------------------|
--------------------------------|
--------------------------------|
--5----5-----5-5-7----7-7---7-7-|
--3--3-3-3-3-3-3-5--5-5-5-5-5-5-|
--------------------------------|


  Break                                               
        PM PM PM PM PM PM PM PM PM PM PM PM PM PM PM  
  S     S  S  S  S  S  S  S  S  S  S  S  S  S  S  S   
-----------------------------------------------------|
-----------------------------------------------------|
--9--------------------------------------------------|
--9-----9--9--9--9--9--9--9--9--9--9--9--9--9--9--9--|
--7-----7--7--7--7--7--7--7--7--7--7--7--7--7--7--7--|
-----------------------------------------------------|


  PM PM PM PM PM PM PM PM PM PM PM PM PM PM PM PM  
  S  S  S  S  S  S  S  S  S  S  S  S  S  S  S  S   
--------------------------------------------------|
--------------------------------------------------|
--------------------------------------------------|
--9--9--9--9--9--9--9--9--9--9--9--9--9--9--9--9--|
--7--7--7--7--7--7--7--7--7--7--7--7--7--7--7--7--|
--------------------------------------------------|


  Verso Riff 1                                               
               PM PM PM PM PM PM PM PM PM PM PM PM PM PM PM  
  S            S  S  S  S  S  S  S  S  S  S  S  S  S  S  S   
------------------------------------------------------------|
------------------------------------------------------------|
--9---------------------------------------------------------|
--9------------9--9--9--9--9--9--9--9--9--9--9--9--9--9--9--|
--7------------7--7--7--7--7--7--7--7--7--7--7--7--7--7--7--|
------------------------------------------------------------|


    PM PM PM PM PM PM PM PM PM PM   PM         
  S S  S  S  S  S  S  S  S  S  S  S S  E  T T  
----------------------------------------------|
----------------------------------------------|
--7-------------------------------7----7------|
--7-7--7--7--7--7--7--7--7--7--7--7-7--7--9-9-|
--5-5--5--5--5--5--5--5--5--5--5--5-5--5--7-7-|
----------------------------------------------|


    PM PM PM PM PM PM PM PM PM PM PM PM PM PM PM  
  S S  S  S  S  S  S  S  S  S  S  S  S  S  S  S   
-------------------------------------------------|
-------------------------------------------------|
--9----------------------------------------------|
--9-9--9--9--9--9--9--9--9--9--9--9--9--9--9--9--|
--7-7--7--7--7--7--7--7--7--7--7--7--7--7--7--7--|
-------------------------------------------------|


    PM PM PM PM PM PM PM PM PM PM   PM         
  S S  S  S  S  S  S  S  S  S  S  S S  E  T T  
----------------------------------------------|
----------------------------------------------|
--7-------------------------------7----7------|
--7-7--7--7--7--7--7--7--7--7--7--7-7--7--5-5-|
--5-5--5--5--5--5--5--5--5--5--5--5-5--5--3-3-|
----------------------------------------------|


    PM PM PM PM PM PM PM PM PM PM PM PM         
  S S  S  S  S  S  S  S  S  S  S  S  S  E  T T  
-----------------------------------------------|
-----------------------------------------------|
--5-------------------------------------7------|
--5-5--5--5--5--5--5--5--5--5--5--5--5--7--9-9-|
--3-3--3--3--3--3--3--3--3--3--3--3--3--5--7-7-|
-----------------------------------------------|


    PM PM PM PM PM PM PM PM PM PM PM           
  S S  S  S  S  S  S  S  S  S  S  S     S S S  
-------------------------------------|--------|
-------------------------------------|--------|
--9----------------------------------|--------|
--9-9--9--9--9--9--9--9--9--9--9--9--|--9-8-7-|
--7-7--7--7--7--7--7--7--7--7--7--7--|--7-6-5-|
-------------------------------------|--------|


  Verso Riff 2                                                                
  E            S S S S S S E  S S S S S S    E   S S S S S S E   S S S S S S  
------------------------------------------|----------------------------------|
------------------------------------------|----------------------------------|
------------------------------------------|--7s--9---9---9-9-7s--9---9-9-8-7-|
--5--------------5-----5-5-7----7-----7-7-|--7s--9-9-9-9-9-9-7s--9-9-9-------|
--3------------3-3-3-3-3-3-5--5-5-5-5-5-5-|----------------------------------|
------------------------------------------|----------------------------------|


  E  S S S S S S E  S S S S S S    E   S S S S S S E   S S S S S S  
--------------------------------|----------------------------------|
--------------------------------|----------------------------------|
--------------------------------|----------------------------------|
--5----5-----5-5-7----7-----7-7-|--7s--9---9---9-9-7s--9---9-------|
--3--3-3-3-3-3-3-5--5-5-5-5-5-5-|--5s--7-7-7-7-7-7-5s--7-7-7-7-6-5-|
--------------------------------|----------------------------------|


  E  S S S S S S E  S S S S S S    E   S S S S S S E   S S S S S S  
--------------------------------|----------------------------------|
--------------------------------|----------------------------------|
--------------------------------|--7s--9---9---9-9-7s--9---9-9-8-7-|
--5----5-----5-5-7----7-----7-7-|--7s--9-9-9-9-9-9-7s--9-9-9-------|
--3--3-3-3-3-3-3-5--5-5-5-5-5-5-|----------------------------------|
--------------------------------|----------------------------------|


  E  S S S S S S E  S S S S S S    E   S S S S S S E   S S S S S S  
--------------------------------|----------------------------------|
--------------------------------|----------------------------------|
--------------------------------|----------------------------------|
--5----5-----5-5-7----7-----7-7-|--7s--9---9---9-9-7s--9---9-------|
--3--3-3-3-3-3-3-5--5-5-5-5-5-5-|--5s--7-7-7-7-7-7-5s--7-7-7-7-6-5-|
--------------------------------|----------------------------------|


                                   Break                             
  E  S S S S S S E  S S S S S S    H.              H        S  E.    
--------------------------------|---------------|-------------------|
--------------------------------|---------------|-------------------|
--------------------------------|---------------|-------------------|
--5----5-----5-5-7----7-7---7-7-|--2------------|--L--------L-------|
--3--3-3-3-3-3-3-5--5-5-5-5-5-5-|--2------------|--L--------L-12\---|
--------------------------------|--0------------|--L--------L-------|


  Riff A                                                             
  PM     PM PM   PM   PM PM PM      PM PM PM   PM   PM PM PM         
  S      S  S  S S  S S  S  S  E.   S  S  S  S S  S S  S  S  S  S S  
--------------------------------------------------------------------|
--------------------------------------------------------------------|
--------------------------------------------------------------------|
-------------------------------5~----------------------------7p-5---|
---------------5----7----------5~------------5----7---------------7-|
--0------0--0----0----0--0--0-------0--0--0----0----0--0--0---------|


  PM PM PM   PM   PM PM PM      PM PM PM   PM   PM PM PM         
  S  S  S  S S  S S  S  S  E.   S  S  S  S S  S S  S  S  S  S S  
----------------------------------------------------------------|
----------------------------------------------------------------|
----------------------------------------------------------------|
---------------------------5~----------------------------7p-5---|
-----------5----7----------5~------------5----7---------------7-|
--0--0--0----0----0--0--0-------0--0--0----0----0--0--0---------|


  Verso Riff 3                                                             
  PM           PM PM   PM   PM PM PM      PM PM PM   PM   PM PM PM         
  S            S  S  S S  S S  S  S  E.   S  S  S  S S  S S  S  S  S  S S  
--------------------------------------------------------------------------|
--------------------------------------------------------------------------|
--------------------------------------------------------------------------|
-------------------------------------5~----------------------------7p-5---|
---------------------5----7----------5~------------5----7---------------7-|
--0------------0--0----0----0--0--0-------0--0--0----0----0--0--0---------|


  PM PM PM   PM   PM PM PM      PM PM PM   PM   PM PM           
  S  S  S  S S  S S  S  S  E.   S  S  S  S S  S S  S  S S  S S  
---------------------------------------------------------------|
---------------------------------------------------------------|
---------------------------------------------------------------|
---------------------------5~-------------------------7-7p-5---|
-----------5----7----------5~------------5----7--------------7-|
--0--0--0----0----0--0--0-------0--0--0----0----0--0-----------|


  S S S S S S S S S S S S S S S S S S S S S S S S  
--------------------------------------------------|
--------------------------------------------------|
--------------------------------------------------|
--------5-5-5-4-4-4-5-5-5-------5-5-5-4-4-4-5-5-5-|
--3-3-3-------------------3-3-3-------------------|
--------------------------------------------------|


  PM PM PM   PM   PM PM PM      PM PM PM   PM   PM PM PM         
  S  S  S  S S  S S  S  S  E.   S  S  S  S S  S S  S  S  S  S S  
----------------------------------------------------------------|
----------------------------------------------------------------|
----------------------------------------------------------------|
---------------------------5~----------------------------7p-5---|
-----------5----7----------5~------------5----7---------------7-|
--0--0--0----0----0--0--0-------0--0--0----0----0--0--0---------|


  PM PM PM   PM   PM PM PM      PM PM PM   PM   PM PM PM         
  S  S  S  S S  S S  S  S  E.   S  S  S  S S  S S  S  S  S  S S  
----------------------------------------------------------------|
----------------------------------------------------------------|
----------------------------------------------------------------|
---------------------------5~----------------------------7p-5---|
-----------5----7----------5~------------5----7---------------7-|
--0--0--0----0----0--0--0-------0--0--0----0----0--0--0---------|


  PM PM PM   PM   PM PM PM      PM PM PM   PM   PM PM           
  S  S  S  S S  S S  S  S  E.   S  S  S  S S  S S  S  S S  S S  
---------------------------------------------------------------|
---------------------------------------------------------------|
---------------------------------------------------------------|
---------------------------5~-------------------------7-7p-5---|
-----------5----7----------5~------------5----7--------------7-|
--0--0--0----0----0--0--0-------0--0--0----0----0--0-----------|


  S S S S S S S S S S S S S S S S S S S S S S S S  
--------------------------------------------------|
--------------------------------------------------|
--------------------------------------------------|
--------5-5-5-4-4-4-5-5-5-------5-5-5-4-4-4-5-5-5-|
--3-3-3-------------------3-3-3-------------------|
--------------------------------------------------|


  PM PM PM   PM   PM PM PM      PM PM PM   PM   PM PM PM          
  S  S  S  S S  S S  S  S  E.   S  S  S  S S  S S  S  S  S  S  S  
-----------------------------------------------------------------|
-----------------------------------------------------------------|
-----------------------------------------------------------------|
---------------------------5~----------------------------7p-5p-0-|
-----------5----7----------5~------------5----7------------------|
--0--0--0----0----0--0--0-------0--0--0----0----0--0--0----------|


  Coro                                                    
  H.           H.              H.           H.            
----------------------------|----------------------------|
----------------------------|----------------------------|
--5------------7------------|--4------------5------------|
--5------------7------------|--4------------5------------|
--3------------5------------|--2------------3------------|
----------------------------|----------------------------|


  H.           H.            
----------------------------|
----------------------------|
--5------------7------------|
--5------------7------------|
--3------------5------------|
----------------------------|


       PM PM PM PM PM PM PM PM PM      PM PM PM PM PM PM PM PM PM  
  E  S S  S  S  S  S  S  S  S  S  E  S S  S  S  S  S  S  S  S  S   
------------------------------------------------------------------|
------------------------------------------------------------------|
------------------------------------------------------------------|
--7--9----------------------------7--9----------------------------|
--5--7----------------------------5--7----------------------------|
-------0--0--0--0--0--0--0--0--0-------0--0--0--0--0--0--0--0--0--|


  H.           H.              H.           H.            
----------------------------|----------------------------|
----------------------------|----------------------------|
--5------------7------------|--4------------5------------|
--5------------7------------|--4------------5------------|
--3------------5------------|--2------------3------------|
----------------------------|----------------------------|


  H.           H.            
----------------------------|
----------------------------|
--5------------7------------|
--5------------7------------|
--3------------5------------|
----------------------------|


  PM PM PM   PM   PM PM PM      PM PM PM   PM   PM PM PM         
  S  S  S  S S  S S  S  S  E.   S  S  S  S S  S S  S  S  S  S S  
----------------------------------------------------------------|
----------------------------------------------------------------|
----------------------------------------------------------------|
---------------------------5~----------------------------7p-5---|
-----------5----7----------5~------------5----7---------------7-|
--0--0--0----0----0--0--0-------0--0--0----0----0--0--0---------|


  Verso Riff 3                                                            
  PM           PM PM   PM   PM PM PM      PM PM PM   PM   PM PM           
  S            S  S  S S  S S  S  S  E.   S  S  S  S S  S S  S  S S  S S  
-------------------------------------------------------------------------|
-------------------------------------------------------------------------|
-------------------------------------------------------------------------|
-------------------------------------5~-------------------------7-7p-5---|
---------------------5----7----------5~------------5----7--------------7-|
--0------------0--0----0----0--0--0-------0--0--0----0----0--0-----------|


  PM PM PM   PM   PM PM PM      PM PM PM   PM   PM             
  S  S  S  S S  S S  S  S  E.   S  S  S  S S  S S  S S S  S S  
--------------------------------------------------------------|
--------------------------------------------------------------|
--------------------------------------------------------------|
---------------------------5~----------------------7-7-7p-5---|
-----------5----7----------5~------------5----7-------------7-|
--0--0--0----0----0--0--0-------0--0--0----0----0-------------|


  S S S S S S S S S S S S S S S S S S S S S S S S  
--------------------------------------------------|
--------------------------------------------------|
--------------------------------------------------|
--------5-5-5-4-4-4-5-5-5-------5-5-5-4-4-4-5-5-5-|
--3-3-3-------------------3-3-3-------------------|
--------------------------------------------------|


  PM PM PM   PM   PM PM PM      PM PM PM   PM   PM             
  S  S  S  S S  S S  S  S  E.   S  S  S  S S  S S  S S S  S S  
--------------------------------------------------------------|
--------------------------------------------------------------|
--------------------------------------------------------------|
---------------------------5~----------------------7-7-7p-5---|
-----------5----7----------5~------------5----7-------------7-|
--0--0--0----0----0--0--0-------0--0--0----0----0-------------|


  PM PM PM   PM   PM PM PM      PM PM PM   PM   PM PM PM         
  S  S  S  S S  S S  S  S  E.   S  S  S  S S  S S  S  S  S  S S  
----------------------------------------------------------------|
----------------------------------------------------------------|
----------------------------------------------------------------|
---------------------------5~----------------------------7p-5---|
-----------5----7----------5~------------5----7---------------7-|
--0--0--0----0----0--0--0-------0--0--0----0----0--0--0---------|


  PM PM PM   PM   PM PM PM      PM PM PM   PM   PM PM           
  S  S  S  S S  S S  S  S  E.   S  S  S  S S  S S  S  S S  S S  
---------------------------------------------------------------|
---------------------------------------------------------------|
---------------------------------------------------------------|
---------------------------5~-------------------------7-7p-5---|
-----------5----7----------5~------------5----7--------------7-|
--0--0--0----0----0--0--0-------0--0--0----0----0--0-----------|


  S S S S S S S S S S S S S S S S S S S S S S S S  
--------------------------------------------------|
--------------------------------------------------|
--------------------------------------------------|
--------5-5-5-4-4-4-5-5-5-------5-5-5-4-4-4-5-5-5-|
--3-3-3-------------------3-3-3-------------------|
--------------------------------------------------|


  PM PM PM   PM   PM PM PM      PM PM PM   PM   PM PM PM          
  S  S  S  S S  S S  S  S  E.   S  S  S  S S  S S  S  S  S  S  S  
-----------------------------------------------------------------|
-----------------------------------------------------------------|
-----------------------------------------------------------------|
---------------------------5~----------------------------7p-5p-0-|
-----------5----7----------5~------------5----7------------------|
--0--0--0----0----0--0--0-------0--0--0----0----0--0--0----------|


  Coro                                                    
  H.           H.              H.           H.            
----------------------------|----------------------------|
----------------------------|----------------------------|
--5------------7------------|--4------------5------------|
--5------------7------------|--4------------5------------|
--3------------5------------|--2------------3------------|
----------------------------|----------------------------|


  H.           H.            
----------------------------|
----------------------------|
--5------------7------------|
--5------------7------------|
--3------------5------------|
----------------------------|


       PM PM PM PM PM PM PM PM PM      PM PM PM PM PM PM PM PM PM  
  E  S S  S  S  S  S  S  S  S  S  E  S S  S  S  S  S  S  S  S  S   
------------------------------------------------------------------|
------------------------------------------------------------------|
------------------------------------------------------------------|
--7--9----------------------------7--9----------------------------|
--5--7----------------------------5--7----------------------------|
-------0--0--0--0--0--0--0--0--0-------0--0--0--0--0--0--0--0--0--|


  H.           H.              H.           H.            
----------------------------|----------------------------|
----------------------------|----------------------------|
--5------------7------------|--4------------5------------|
--5------------7------------|--4------------5------------|
--3------------5------------|--2------------3------------|
----------------------------|----------------------------|


  H.           H.              E  S E.  E  S E.  S S S S S S S S S S S S  
----------------------------|--------------------------------------------|
----------------------------|--------------------------------------------|
--5------------7------------|--------------------5-4---4-----------------|
--5------------7------------|-------4--------4-------7---7-5-7-5-4-5-4---|
--3------------5------------|--2--2-2---2--2-2-------------------------5-|
----------------------------|--------------------------------------------|


  Verso Riff 4                                                               
                 PM PM PM PM PM PM PM PM PM      PM PM PM PM PM PM PM PM PM  
  E            S S  S  S  S  S  S  S  S  S  E  S S  S  S  S  S  S  S  S  S   
----------------------------------------------------------------------------|
----------------------------------------------------------------------------|
----------------------------------------------------------------------------|
--7------------9----------------------------7--9----------------------------|
--5------------7----------------------------5--7----------------------------|
-----------------0--0--0--0--0--0--0--0--0-------0--0--0--0--0--0--0--0--0--|


       PM PM PM PM PM PM PM PM PM                          
  E  S S  S  S  S  S  S  S  S  S  S S S S S S S S S S S S  
----------------------------------------------------------|
----------------------------------8-8-8-7-7-7-8-8-8-7-7-7-|
----------------------------------7-7-7-7-7-7-7-7-7-7-7-7-|
--7--9----------------------------------------------------|
--5--7----------------------------------------------------|
-------0--0--0--0--0--0--0--0--0--------------------------|


       PM PM PM PM PM PM PM PM PM      PM PM PM PM PM PM PM PM PM  
  E  S S  S  S  S  S  S  S  S  S  E  S S  S  S  S  S  S  S  S  S   
------------------------------------------------------------------|
------------------------------------------------------------------|
------------------------------------------------------------------|
--7--9----------------------------7--9----------------------------|
--5--7----------------------------5--7----------------------------|
-------0--0--0--0--0--0--0--0--0-------0--0--0--0--0--0--0--0--0--|


       PM PM PM PM PM PM PM PM PM                          
  E  S S  S  S  S  S  S  S  S  S  S S S S S S S S S S S S  
----------------------------------------------------------|
----------------------------------8-8-8-7-7-7-8-8-8-7-7-7-|
----------------------------------7-7-7-7-7-7-7-7-7-7-7-7-|
--7--9----------------------------------------------------|
--5--7----------------------------------------------------|
-------0--0--0--0--0--0--0--0--0--------------------------|


       PM PM PM PM PM PM PM PM PM      PM PM PM PM PM PM PM PM PM  
  E  S S  S  S  S  S  S  S  S  S  E  S S  S  S  S  S  S  S  S  S   
------------------------------------------------------------------|
------------------------------------------------------------------|
------------------------------------------------------------------|
--7--9----------------------------7--9----------------------------|
--5--7----------------------------5--7----------------------------|
-------0--0--0--0--0--0--0--0--0-------0--0--0--0--0--0--0--0--0--|


       PM PM PM PM PM PM PM PM PM                          
  E  S S  S  S  S  S  S  S  S  S  S S S S S S S S S S S S  
----------------------------------------------------------|
----------------------------------8-8-8-7-7-7-8-8-8-7-7-7-|
----------------------------------7-7-7-7-7-7-7-7-7-7-7-7-|
--7--9----------------------------------------------------|
--5--7----------------------------------------------------|
-------0--0--0--0--0--0--0--0--0--------------------------|


       PM PM PM PM PM PM PM PM PM      PM PM PM PM PM PM PM PM PM  
  E  S S  S  S  S  S  S  S  S  S  E  S S  S  S  S  S  S  S  S  S   
------------------------------------------------------------------|
------------------------------------------------------------------|
------------------------------------------------------------------|
--7--9----------------------------7--9----------------------------|
--5--7----------------------------5--7----------------------------|
-------0--0--0--0--0--0--0--0--0-------0--0--0--0--0--0--0--0--0--|


       PM PM PM PM PM PM PM PM PM                          
  E  S S  S  S  S  S  S  S  S  S  S S S S S S S S S S S S  
----------------------------------------------------------|
----------------------------------8-8-8-7-7-7-8-8-8-7-7-7-|
----------------------------------7-7-7-7-7-7-7-7-7-7-7-7-|
--7--9----------------------------------------------------|
--5--7----------------------------------------------------|
-------0--0--0--0--0--0--0--0--0--------------------------|


  H.           E.  S S S E.  E.   
---------------------------------|
---------------------------------|
---------------------------------|
--2------------3---2-------------|
--2------------------3-2---------|
--0----------------------3---2---|


  Solo 1 Dave Murray                           
  Q.                 E  H.            E    E   
----------------------------------------------|
----------------------------------------------|
---------------------9--L---------------------|
--2------------------9--L------------11S--12--|
--2------------------7--L-------------9S--10--|
--0-------------------------------------------|


  W                Q     E    E     H.           E.  S S S E.  E.   
---------------------------------|---------------------------------|
---------------------------------|---------------------------------|
--7----------------L-------------|--5------------------------------|
--7----------------L----11S--12--|--5------------3---2-------------|
--5----------------L-----9S--10--|--3------------------3-2---------|
---------------------------------|-------------------------3---2---|


  Q.     E  H.            E    E     W                Q     E    E   
----------------------------------|---------------------------------|
----------------------------------|---------------------------------|
---------9--L---------------------|--7----------------L-------------|
--2------9--L------------11S--12--|--7----------------L----11S--12--|
--2------7--L-------------9S--10--|--5----------------L-----9S--10--|
--0-------------------------------|---------------------------------|


  H.           E.  S S S E.  E.     Q.     E  H.            E    E   
---------------------------------|----------------------------------|
---------------------------------|----------------------------------|
--5------------------------------|---------9--L---------------------|
--5------------3---2-------------|--2------9--L------------11S--12--|
--3------------------3-2---------|--2------7--L-------------9S--10--|
-------------------------3---2---|--0-------------------------------|


  W                Q     E    E     H.           E.  S S S E.  E.   
---------------------------------|---------------------------------|
---------------------------------|---------------------------------|
--7----------------L-------------|--5------------------------------|
--7----------------L----11S--12--|--5------------3---2-------------|
--5----------------L-----9S--10--|--3------------------3-2---------|
---------------------------------|-------------------------3---2---|


  Q.     E  H.            E    E     W                Q     E    E   
----------------------------------|---------------------------------|
----------------------------------|---------------------------------|
---------9--L---------------------|--7----------------L-------------|
--2------9--L------------11S--12--|--7----------------L----11S--12--|
--2------7--L-------------9S--10--|--5----------------L-----9S--10--|
--0-------------------------------|---------------------------------|


                                    Puente             
                                                 \0    
  H.           E.  S S S E.  E.     H.           Q     
---------------------------------|--------------------|
---------------------------------|--------------------|
--5------------------------------|--------------------|
--5------------3---2-------------|--2------------9----|
--3------------------3-2---------|--2------------7----|
-------------------------3---2---|--0------------0----|


           PM PM PM PM PM PM PM PM  
  H        S  S  S  S  S  S  S  S   
-----------------------------------|
-----------------------------------|
-----------------------------------|
--L--------------------------------|
--L--------7--7--7--7--7--7--7--7--|
--L--------------------------------|


  PM PM PM PM PM PM PM PM PM PM          SH    
  S  S  S  S  S  S  S  S  S  S  S  S S   E.    
----------------------------------------------|
----------------------------------------------|
----------------------------------------------|
---------------------------------------<>5~---|
--7--7--7--7--7--7--7--7--7--7--7p-5----------|
-------------------------------------7--------|


  Riff B                                                           
  PM     PM PM   PM   PM PM PM      PM PM PM   PM   PM             
  S      S  S  S S  S S  S  S  E.   S  S  S  S S  S S  S S S  S S  
------------------------------------------------------------------|
------------------------------------------------------------------|
------------------------------------------------------------------|
-------------------------------5~----------------------7-7-7p-5---|
---------------5----7----------5~------------5----7-------------7-|
--0------0--0----0----0--0--0-------0--0--0----0----0-------------|


  PM PM PM   PM   PM PM PM      PM PM PM   PM   PM PM           
  S  S  S  S S  S S  S  S  E.   S  S  S  S S  S S  S  S S  S S  
---------------------------------------------------------------|
---------------------------------------------------------------|
---------------------------------------------------------------|
---------------------------5~-------------------------7-7p-5---|
-----------5----7----------5~------------5----7--------------7-|
--0--0--0----0----0--0--0-------0--0--0----0----0--0-----------|


  PM PM PM   PM   PM PM PM      PM PM PM   PM   PM PM           
  S  S  S  S S  S S  S  S  E.   S  S  S  S S  S S  S  S S  S S  
---------------------------------------------------------------|
---------------------------------------------------------------|
---------------------------------------------------------------|
---------------------------5~-------------------------7-7p-5---|
-----------5----7----------5~------------5----7--------------7-|
--0--0--0----0----0--0--0-------0--0--0----0----0--0-----------|


  PM PM PM   PM   PM PM PM      PM PM PM   PM                  
  S  S  S  S S  S S  S  S  E.   S  S  S  S S  S S  S S S S  S  
--------------------------------------------------------------|
--------------------------------------------------------------|
--------------------------------------------------------------|
---------------------------5~-----------------7-7p-5---5------|
-----------5----7----------5~------------5-----------7---7p-5-|
--0--0--0----0----0--0--0-------0--0--0----0------------------|


  Verso Riff 5                                                            
  PM           PM PM   PM   PM PM PM      PM PM PM   PM   PM PM           
  S            S  S  S S  S S  S  S  E.   S  S  S  S S  S S  S  S S  S S  
-------------------------------------------------------------------------|
-------------------------------------------------------------------------|
-------------------------------------------------------------------------|
-------------------------------------5~-------------------------7-7p-5---|
---------------------5----7----------5~------------5----7--------------7-|
--0------------0--0----0----0--0--0-------0--0--0----0----0--0-----------|


  PM PM PM   PM   PM PM PM      PM PM PM   PM   PM PM           
  S  S  S  S S  S S  S  S  E.   S  S  S  S S  S S  S  S S  S S  
---------------------------------------------------------------|
---------------------------------------------------------------|
---------------------------------------------------------------|
---------------------------5~-------------------------7-7p-5---|
-----------5----7----------5~------------5----7--------------7-|
--0--0--0----0----0--0--0-------0--0--0----0----0--0-----------|


  PM PM PM   PM   PM PM PM      PM PM PM   PM   PM PM           
  S  S  S  S S  S S  S  S  E.   S  S  S  S S  S S  S  S S  S S  
---------------------------------------------------------------|
---------------------------------------------------------------|
---------------------------------------------------------------|
---------------------------5~-------------------------7-7p-5---|
-----------5----7----------5~------------5----7--------------7-|
--0--0--0----0----0--0--0-------0--0--0----0----0--0-----------|


  PM PM PM   PM   PM PM PM      PM PM PM   PM                  
  S  S  S  S S  S S  S  S  E.   S  S  S  S S  S S  S S S S  S  
--------------------------------------------------------------|
--------------------------------------------------------------|
--------------------------------------------------------------|
---------------------------5~-----------------7-7p-5---5------|
-----------5----7----------5~------------5-----------7---7p-5-|
--0--0--0----0----0--0--0-------0--0--0----0------------------|


  PM PM PM   PM   PM PM PM      PM PM PM   PM   PM PM           
  S  S  S  S S  S S  S  S  E.   S  S  S  S S  S S  S  S S  S S  
---------------------------------------------------------------|
---------------------------------------------------------------|
---------------------------------------------------------------|
---------------------------5~-------------------------7-7p-5---|
-----------5----7----------5~------------5----7--------------7-|
--0--0--0----0----0--0--0-------0--0--0----0----0--0-----------|


  PM PM PM   PM   PM PM PM      PM PM PM   PM   PM PM           
  S  S  S  S S  S S  S  S  E.   S  S  S  S S  S S  S  S S  S S  
---------------------------------------------------------------|
---------------------------------------------------------------|
---------------------------------------------------------------|
---------------------------5~-------------------------7-7p-5---|
-----------5----7----------5~------------5----7--------------7-|
--0--0--0----0----0--0--0-------0--0--0----0----0--0-----------|


  PM PM PM   PM   PM PM PM      PM PM PM   PM   PM PM           
  S  S  S  S S  S S  S  S  E.   S  S  S  S S  S S  S  S S  S S  
---------------------------------------------------------------|
---------------------------------------------------------------|
---------------------------------------------------------------|
---------------------------5~-------------------------7-7p-5---|
-----------5----7----------5~------------5----7--------------7-|
--0--0--0----0----0--0--0-------0--0--0----0----0--0-----------|


  PM PM PM   PM   PM PM PM      PM PM PM   PM                  
  S  S  S  S S  S S  S  S  E.   S  S  S  S S  S S  S S S S  S  
--------------------------------------------------------------|
--------------------------------------------------------------|
--------------------------------------------------------------|
---------------------------5~-----------------7-7p-5---5------|
-----------5----7----------5~------------5-----------7---7p-5-|
--0--0--0----0----0--0--0-------0--0--0----0------------------|


  PM PM PM   PM   PM PM PM      PM PM PM   PM   PM             
  S  S  S  S S  S S  S  S  E.   S  S  S  S S  S S  S S S  S S  
--------------------------------------------------------------|
--------------------------------------------------------------|
--------------------------------------------------------------|
---------------------------5~----------------------7-7-7p-5---|
-----------5----7----------5~------------5----7-------------7-|
--0--0--0----0----0--0--0-------0--0--0----0----0-------------|


  PM PM PM   PM   PM PM PM      PM PM PM   PM   PM             
  S  S  S  S S  S S  S  S  E.   S  S  S  S S  S S  S S S  S S  
--------------------------------------------------------------|
--------------------------------------------------------------|
--------------------------------------------------------------|
---------------------------5~----------------------7-7-7p-5---|
-----------5----7----------5~------------5----7-------------7-|
--0--0--0----0----0--0--0-------0--0--0----0----0-------------|


  PM PM PM   PM   PM PM PM      PM PM PM   PM   PM PM           
  S  S  S  S S  S S  S  S  E.   S  S  S  S S  S S  S  S S  S S  
---------------------------------------------------------------|
---------------------------------------------------------------|
---------------------------------------------------------------|
---------------------------5~-------------------------7-7p-5---|
-----------5----7----------5~------------5----7--------------7-|
--0--0--0----0----0--0--0-------0--0--0----0----0--0-----------|


  Solo 2 Adrian Smith                           
  H.                  Q     S  S  S  S S S S S  
-----------------------------------------------|
------------------------------10-10p-8---8-----|
--9~------------------9~----L----------9---9-7-|
-----------------------------------------------|
-----------------------------------------------|
-----------------------------------------------|


   E    E    E    E   E.   T   T   E.    H           S  
-------------------------------------------------------|
--15b--15b--15b--15b--L---15p-12h-15~---15b~--------15-|
-------------------------------------------------------|
-------------------------------------------------------|
-------------------------------------------------------|
-------------------------------------------------------|


   S   S  S   S   S  S  S  S   S  S  E    S   S  S  S  S  S Q.      
--12h-14-----------------------------------------------------------|
---------15p-12h-15----12------------------------------------------|
--------------------14----14p-12----12~----------------------------|
---------------------------------14------14p-12--------------------|
------------------------------------------------14-13-12-10-L------|
-------------------------------------------------------------------|


   S   S  S  S  S   S  E   Q      S   S  S  S  S   S  Q     S  S  
-----------------------------------------------------------------|
---------------------------------12h-13----12-----------------12-|
----------------------12--14~-----------14----14p-12-14~----L----|
---------------12h-14--------------------------------------------|
---------12-14---------------------------------------------------|
--12h-15---------------------------------------------------------|


   |---3--|  |---3--|  |--3--|   |--3--|  |---3--|  |---3--|  |--3--|           
   S   S  S  S  S   S  S  S  S   S  S  S  S   S  S  S  S   S  S  S  S  Q     Q. 
--12p-10-------12p-10-------12p-10-------12p-10-------12p-10-------12~-L--------
---------12-10--------12-10--------12-10--------12-10--------12-10----------15b-
--------------------------------------------------------------------------------
--------------------------------------------------------------------------------
--------------------------------------------------------------------------------
--------------------------------------------------------------------------------


   E    S  S  S  S  E    S  S  S  S  E    S  S  S  S  E    S  S  S  S  
-------15---------------14---------------15---------------17----------|
--15b-----17-15----15b-----17-15----15b-----17-15-17-15b-----17-15----|
----------------16---------------16--------------------------------16-|
----------------------------------------------------------------------|
----------------------------------------------------------------------|
----------------------------------------------------------------------|


   E    S  S  S  S  E    S  S  S  S  E    H          S  S  
-------15---------------14-----------------------------17-|
--15b-----17-15----15b-----17-15----15b--15b~--------L----|
----------------16---------------16-----------------------|
----------------------------------------------------------|
----------------------------------------------------------|
----------------------------------------------------------|


   S  S  S  S  S   S   S   S  S  S  S  S   S   S  S  S  S  S   S   S  S   S   S 
--17-17-17-17-15p-14h-15p-14----14----------------------------------------------
-----------------------------17----17-15h-17p-15----15--------------------------
-------------------------------------------------17----17-16h-17p-16-14h-16p-14-
--------------------------------------------------------------------------------
--------------------------------------------------------------------------------
--------------------------------------------------------------------------------


   H.              S   S E   H         
--------------------------------------|
--10pbr------------8h-10-8~--L--------|
---9----------------------------------|
--------------------------------------|
--------------------------------------|
--------------------------------------|


  S  S S S S S S  S S S S S S  S S S S S S  S S S S S  
------------------------------------------------------|
------------------------------------------------------|
--7S-9-9-9-9-9-5S-9-9-9-9-9-7S-9-9-9-9-9-5S-9-9-9-9-9-|
------------------------------------------------------|
------------------------------------------------------|
------------------------------------------------------|


  S S S S S S  S  S  S  S  S  S S S S S S S  S  S  S  S  S  S  
--------------------------------------------------------------|
--8-8-8-8-8-8-10-10-10-10-10-10-8-8-8-8-8-8-10-10-10-10-10-10-|
--9-9-9-9-9-9--9--9--9--9--9--9-9-9-9-9-9-9--9--9--9--9--9--9-|
--------------------------------------------------------------|
--------------------------------------------------------------|
--------------------------------------------------------------|


  S S S S S S S S S S S S S S S S S S S S S S S S  
--------------------------------------------------|
--8-8-8-8-8-8-7-7-7-7-7-7-------------------------|
--9-9-9-9-9-9-9-9-9-9-9-9-9-9-9-9-9-9-7-7-7-7-7-7-|
--------------------------------------------------|
--------------------------------------------------|
--------------------------------------------------|


  tr                                       
  W                   S S  S  S S  S  S S  
------------------------------------------|
------------------------------------------|
--7(9)----------------L-7h-9p-7-----------|
--------------------------------9p-7h-9-7-|
------------------------------------------|
------------------------------------------|


  S S S S S S  S  S  S  S S S E   E  S   S Q.       
---------------------------------------------------|
--8-x-8-x-----10--x-10--x-----8--10--8h-10-8~------|
--9-x-9-x-9-9--9--x--9--x-9-9-9--------------------|
----------9-9-------------9-9----------------------|
---------------------------------------------------|
---------------------------------------------------|


  S S S S S S  S  S  S  S S S  S  S  S  E.   Q.       
------------------------------------12---------------|
--8-x-8-x-----10--x-10--x-----10-12----15---15b------|
--9-x-9-x-9-9--9--x--9--x-9-9------------------------|
----------9-9-------------9-9------------------------|
-----------------------------------------------------|
-----------------------------------------------------|


                                  Outro                      
  S S S S S S  S  S  S  S S S     E.    S   S   S  E.   E.   
------------------------------|-----------------------------|
--8-x-8-x-----10--x-10--x-----|--15b---12h-15p-12-----------|
--9-x-9-x-9-9--9--x--9--x-9-9-|-------------------12---11---|
----------9-9-------------9-9-|-----------------------------|
------------------------------|-----------------------------|
------------------------------|-----------------------------|


                                            |--3-|      
   Q     S  T  T   S  T  T   S  T   T   E   S S  S  E   
-----------12------------------------------------------|
--15~----L----12h-15----12p-11-------------------------|
---------------------14--------14p-12h-14--12-L-14-12--|
-------------------------------------------------------|
-------------------------------------------------------|
-------------------------------------------------------|


                             |--3--|   |---3--|              
   T   T  S   T  T  S  S  S  S  S  S   S  S   S S  S  Q      
------------------------------------------------------------|
------------------------------------------------------------|
-----------------------------------------12h-14-L-12--------|
--14p-12--------------------------12h-14-------------14~----|
---------14p-12----12-14----12-14---------------------------|
----------------15-------15---------------------------------|


  H        Q     E    E        E.  S   
---------------------------|---------||
----------------17---17----|---L-----||
----------------19b--19br--|---L-----||
--L------------------------|---------||
---------------------------|---------||
---------------------------|---------||




Guitar #2:
                               
Dave Murray

          Intro                                   
     S    W                   H.           E.  S  
E||----|-------------------|---------------------|
B||----|-------------------|---------------------|
G||----|-------------------|-------------------7-|
D||----|-------------------|-------------------7-|
A||----|-------------------|-------------------5-|
E||----|-------------------|---------------------|


  Verso Riff 1                                              
  S            E.  H.              S H        E  E  E  T T  
--------------------------------|--------------------------|
--------------------------------|--------------------------|
--9-----------------------------|--7-----------------------|
--9-----------------------------|--7-------------7--7--9-9-|
--7-----------------------------|--5-------------5--5--7-7-|
--------------------------------|--------------------------|


  S E.  H.              S H        E  E  E  T T    S H.           E  T T  
---------------------|--------------------------|------------------------|
---------------------|--------------------------|------------------------|
--9------------------|--7-----------------------|--5---------------------|
--9------------------|--7-------------7--7--5-5-|--5--------------7--9-9-|
--7------------------|--5-------------5--5--3-3-|--3--------------5--7-7-|
---------------------|--------------------------|------------------------|


                             Verso Riff 2           
  S E.  H           S S S    H            H         
-----------------|--------|------------------------|
-----------------|--------|------------------------|
--9--------------|--------|--5------------7--------|
--9--------------|--9-8-7-|--5------------7--------|
--7--------------|--7-6-5-|--3------------5--------|
-----------------|--------|------------------------|


  E   S S S S E.  S S S S E.     H        H         
------------------------0-L---|--------------------|
------------------------8-L---|--------------------|
----------------------9-------|--5--------7--------|
--7s--9---9---9-----9---------|--5--------7--------|
--5s--7-7-7-7-7---7-----------|--3--------5--------|
------------------------------|--------------------|


  E   S S S S Q    S E  E.     H        H         
----------------------------|--------------------|
----------------------------|--------------------|
---------------------4--L---|--5--------7--------|
--7s--9---9-5-4----5-L--L---|--5--------7--------|
--5s--7-7-7-----------------|--3--------5--------|
----------------------------|--------------------|


  E   S S S S E.  S S S S E.     H        H         
------------------------0-L---|--------------------|
------------------------8-L---|--------------------|
----------------------9-------|--5--------7--------|
--7s--9---9---9-----9---------|--5--------7--------|
--5s--7-7-7-7-7---7-----------|--3--------5--------|
------------------------------|--------------------|


                                                    Break                   
  E   S S S S Q    S E  E.     H        H           S     E.  H.            
----------------------------|--------------------|-------------------------|
----------------------------|--------------------|-------------------------|
---------------------4--L---|--5--------7--------|--9----------------------|
--7s--9---9-5-4----5-L--L---|--5--------7--------|--9----------------------|
--5s--7-7-7-----------------|--3--------5--------|--7----------------------|
----------------------------|--------------------|-------------------------|


                      Verso Riff 1                                             
  W                   S            E.  H.              H        E.  E  E  T T  
-------------------|--------------------------------|-------------------------|
-------------------|--------------------------------|-------------------------|
-------------------|--9-----------------------------|--7--------L-------------|
-------------------|--9-----------------------------|--7--------L---7--7--9-9-|
-------------------|--7-----------------------------|--5--------L---5--5--7-7-|
-------------------|--------------------------------|-------------------------|


  S E.  H.              H        E.  E  E  T T    S H.           E  T T  
---------------------|-------------------------|------------------------|
---------------------|-------------------------|------------------------|
--9------------------|--7--------L-------------|--5---------------------|
--9------------------|--7--------L---7--7--5-5-|--5--------------7--9-9-|
--7------------------|--5--------L---5--5--3-3-|--3--------------5--7-7-|
---------------------|-------------------------|------------------------|


                             Verso Riff 2           
  S E.  H           S S S    H            H         
-----------------|--------|------------------------|
-----------------|--------|------------------------|
--9--------------|--------|--5------------7--------|
--9--------------|--9-8-7-|--5------------7--------|
--7--------------|--7-6-5-|--3------------5--------|
-----------------|--------|------------------------|


  E   S S S S E.  S S S S E.     H        H         
------------------------0-L---|--------------------|
------------------------8-L---|--------------------|
----------------------9-------|--5--------7--------|
--7s--9---9---9-----9---------|--5--------7--------|
--5s--7-7-7-7-7---7-----------|--3--------5--------|
------------------------------|--------------------|


  E   S S S S Q    S E  E.     H        H         
----------------------------|--------------------|
----------------------------|--------------------|
---------------------4--L---|--5--------7--------|
--7s--9---9-5-4----5-L--L---|--5--------7--------|
--5s--7-7-7-----------------|--3--------5--------|
----------------------------|--------------------|


  E   S S S S E.  S S S S E.     H        H         
------------------------0-L---|--------------------|
------------------------8-L---|--------------------|
----------------------9-------|--5--------7--------|
--7s--9---9---9-----9---------|--5--------7--------|
--5s--7-7-7-7-7---7-----------|--3--------5--------|
------------------------------|--------------------|


                                                    Break         
  E   S S S S Q    S E  E.     H        H           H.            
----------------------------|--------------------|---------------|
----------------------------|--------------------|---------------|
---------------------4--L---|--5--------7--------|--9------------|
--7s--9---9-5-4----5-L--L---|--5--------7--------|--9------------|
--5s--7-7-7-----------------|--3--------5--------|--7------------|
----------------------------|--------------------|---------------|


                  Riff A                                
  H.              W.                  W.                
---------------|-------------------|-------------------|
---------------|-------------------|-------------------|
--L------------|-------------------|-------------------|
--L------------|-------------------|-------------------|
--L------------|-------------------|-------------------|
---------------|-------------------|-------------------|


  Verso Riff 3                                                            
  PM           PM PM   PM   PM PM PM     PM PM PM   PM   PM PM PM         
  S            S  S  S S  S S  S  S  E.  S  S  S  S S  S S  S  S  S  S S  
-------------------------------------------------------------------------|
-------------------------------------------------------------------------|
-------------------------------------4-----------------------------------|
-------------------------------------5----------------------------7p-5---|
---------------------5----7-----------------------5----7---------------7-|
--0------------0--0----0----0--0--0------0--0--0----0----0--0--0---------|


  PM PM PM   PM   PM PM PM     PM PM PM   PM   PM PM           
  S  S  S  S S  S S  S  S  E.  S  S  S  S S  S S  S  S S  S S  
--------------------------------------------------------------|
--------------------------------------------------------------|
---------------------------4----------------------------------|
---------------------------5-------------------------7-7p-5---|
-----------5----7-----------------------5----7--------------7-|
--0--0--0----0----0--0--0------0--0--0----0----0--0-----------|


  S S S S S S S S S S S S S S S S S S S S S S S S  
--------------------------------------------------|
--------------------------------------------------|
--------------------------------------------------|
--------5-5-5-4-4-4-5-5-5-------5-5-5-4-4-4-5-5-5-|
--3-3-3-------------------3-3-3-------------------|
--------------------------------------------------|


  PM PM PM   PM   PM PM PM     PM PM PM   PM   PM PM PM         
  S  S  S  S S  S S  S  S  E.  S  S  S  S S  S S  S  S  S  S S  
---------------------------------------------------------------|
---------------------------------------------------------------|
---------------------------4-----------------------------------|
---------------------------5----------------------------7p-5---|
-----------5----7-----------------------5----7---------------7-|
--0--0--0----0----0--0--0------0--0--0----0----0--0--0---------|


  PM PM PM   PM   PM PM PM     PM PM PM   PM   PM PM PM         
  S  S  S  S S  S S  S  S  E.  S  S  S  S S  S S  S  S  S  S S  
---------------------------------------------------------------|
---------------------------------------------------------------|
---------------------------4-----------------------------------|
---------------------------5----------------------------7p-5---|
-----------5----7-----------------------5----7---------------7-|
--0--0--0----0----0--0--0------0--0--0----0----0--0--0---------|


  PM PM PM   PM   PM PM PM     PM PM PM   PM   PM PM           
  S  S  S  S S  S S  S  S  E.  S  S  S  S S  S S  S  S S  S S  
--------------------------------------------------------------|
--------------------------------------------------------------|
---------------------------4----------------------------------|
---------------------------5-------------------------7-7p-5---|
-----------5----7-----------------------5----7--------------7-|
--0--0--0----0----0--0--0------0--0--0----0----0--0-----------|


  S S S S S S S S S S S S S S S S S S S S S S S S  
--------------------------------------------------|
--------------------------------------------------|
--------------------------------------------------|
--------5-5-5-4-4-4-5-5-5-------5-5-5-4-4-4-5-5-5-|
--3-3-3-------------------3-3-3-------------------|
--------------------------------------------------|


  PM PM PM   PM   PM PM PM     PM PM PM   PM   PM PM PM          
  S  S  S  S S  S S  S  S  E.  S  S  S  S S  S S  S  S  S  S  S  
----------------------------------------------------------------|
----------------------------------------------------------------|
---------------------------4------------------------------------|
---------------------------5----------------------------7p-5p-0-|
-----------5----7-----------------------5----7------------------|
--0--0--0----0----0--0--0------0--0--0----0----0--0--0----------|


  Coro                                                    
  H.           H.              H.           H.            
----------------------------|----------------------------|
----------------------------|----------------------------|
--5------------7------------|--4------------5------------|
--5------------7------------|--4------------5------------|
--3------------5------------|--2------------3------------|
----------------------------|----------------------------|


  H.           H.            
----------------------------|
----------------------------|
--5------------7------------|
--5------------7------------|
--3------------5------------|
----------------------------|


       PM PM PM PM PM PM PM PM PM      PM PM PM PM PM PM PM PM PM  
  E  S S  S  S  S  S  S  S  S  S  E  S S  S  S  S  S  S  S  S  S   
------------------------------------------------------------------|
------------------------------------------------------------------|
--7--9----------------------------7--9----------------------------|
--7--9----------------------------7--9----------------------------|
--5--7----------------------------5--7----------------------------|
-------0--0--0--0--0--0--0--0--0-------0--0--0--0--0--0--0--0--0--|


  H.           H.              H.           H.            
----------------------------|----------------------------|
----------------------------|----------------------------|
--5------------7------------|--4------------5------------|
--5------------7------------|--4------------5------------|
--3------------5------------|--2------------3------------|
----------------------------|----------------------------|


  H.           H.            
----------------------------|
----------------------------|
--5------------7------------|
--5------------7------------|
--3------------5------------|
----------------------------|


  PM PM PM   PM   PM PM PM     PM PM PM   PM   PM PM PM         
  S  S  S  S S  S S  S  S  E.  S  S  S  S S  S S  S  S  S  S S  
---------------------------------------------------------------|
---------------------------------------------------------------|
---------------------------4-----------------------------------|
---------------------------5----------------------------7p-5---|
-----------5----7-----------------------5----7---------------7-|
--0--0--0----0----0--0--0------0--0--0----0----0--0--0---------|


  Verso Riff 3                                                           
  PM           PM PM   PM   PM PM PM     PM PM PM   PM   PM PM           
  S            S  S  S S  S S  S  S  E.  S  S  S  S S  S S  S  S S  S S  
------------------------------------------------------------------------|
------------------------------------------------------------------------|
-------------------------------------4----------------------------------|
-------------------------------------5-------------------------7-7p-5---|
---------------------5----7-----------------------5----7--------------7-|
--0------------0--0----0----0--0--0------0--0--0----0----0--0-----------|


  PM PM PM   PM   PM PM PM     PM PM PM   PM   PM             
  S  S  S  S S  S S  S  S  E.  S  S  S  S S  S S  S S S  S S  
-------------------------------------------------------------|
-------------------------------------------------------------|
---------------------------4---------------------------------|
---------------------------5----------------------7-7-7p-5---|
-----------5----7-----------------------5----7-------------7-|
--0--0--0----0----0--0--0------0--0--0----0----0-------------|


  S S S S S S S S S S S S S S S S S S S S S S S S  
--------------------------------------------------|
--------------------------------------------------|
--------------------------------------------------|
--------5-5-5-4-4-4-5-5-5-------5-5-5-4-4-4-5-5-5-|
--3-3-3-------------------3-3-3-------------------|
--------------------------------------------------|


  PM PM PM   PM   PM PM PM     PM PM PM   PM   PM             
  S  S  S  S S  S S  S  S  E.  S  S  S  S S  S S  S S S  S S  
-------------------------------------------------------------|
-------------------------------------------------------------|
---------------------------4---------------------------------|
---------------------------5----------------------7-7-7p-5---|
-----------5----7-----------------------5----7-------------7-|
--0--0--0----0----0--0--0------0--0--0----0----0-------------|


  PM PM PM   PM   PM PM PM     PM PM PM   PM   PM PM PM         
  S  S  S  S S  S S  S  S  E.  S  S  S  S S  S S  S  S  S  S S  
---------------------------------------------------------------|
---------------------------------------------------------------|
---------------------------4-----------------------------------|
---------------------------5----------------------------7p-5---|
-----------5----7-----------------------5----7---------------7-|
--0--0--0----0----0--0--0------0--0--0----0----0--0--0---------|


  PM PM PM   PM   PM PM PM     PM PM PM   PM   PM PM           
  S  S  S  S S  S S  S  S  E.  S  S  S  S S  S S  S  S S  S S  
--------------------------------------------------------------|
--------------------------------------------------------------|
---------------------------4----------------------------------|
---------------------------5-------------------------7-7p-5---|
-----------5----7-----------------------5----7--------------7-|
--0--0--0----0----0--0--0------0--0--0----0----0--0-----------|


  S S S S S S S S S S S S S S S S S S S S S S S S  
--------------------------------------------------|
--------------------------------------------------|
--------------------------------------------------|
--------5-5-5-4-4-4-5-5-5-------5-5-5-4-4-4-5-5-5-|
--3-3-3-------------------3-3-3-------------------|
--------------------------------------------------|


  PM PM PM   PM   PM PM PM     PM PM PM   PM   PM PM PM          
  S  S  S  S S  S S  S  S  E.  S  S  S  S S  S S  S  S  S  S  S  
----------------------------------------------------------------|
----------------------------------------------------------------|
---------------------------4------------------------------------|
---------------------------5----------------------------7p-5p-0-|
-----------5----7-----------------------5----7------------------|
--0--0--0----0----0--0--0------0--0--0----0----0--0--0----------|


  Coro                                                    
  H.           H.              H.           H.            
----------------------------|----------------------------|
----------------------------|----------------------------|
--5------------7------------|--4------------5------------|
--5------------7------------|--4------------5------------|
--3------------5------------|--2------------3------------|
----------------------------|----------------------------|


  H.           H.            
----------------------------|
----------------------------|
--5------------7------------|
--5------------7------------|
--3------------5------------|
----------------------------|


       PM PM PM PM PM PM PM PM PM      PM PM PM PM PM PM PM PM PM  
  E  S S  S  S  S  S  S  S  S  S  E  S S  S  S  S  S  S  S  S  S   
------------------------------------------------------------------|
------------------------------------------------------------------|
--7--9----------------------------7--9----------------------------|
--7--9----------------------------7--9----------------------------|
--5--7----------------------------5--7----------------------------|
-------0--0--0--0--0--0--0--0--0-------0--0--0--0--0--0--0--0--0--|


  H.           H.              H.           H.            
----------------------------|----------------------------|
----------------------------|----------------------------|
--5------------7------------|--4------------5------------|
--5------------7------------|--4------------5------------|
--3------------5------------|--2------------3------------|
----------------------------|----------------------------|


  H.           H.              E  S E.  E  S E.  S  S S S S S  S  S S  S  S S  
----------------------------|-------------------------------------------------|
----------------------------|-------------------------------------------------|
--5------------7------------|--------------------5p-4---4---------------------|
--5------------7------------|-------4--------4--------7---7-5h-7p-5-4h-5p-4---|
--3------------5------------|--2--2-2---2--2-2------------------------------5-|
----------------------------|-------------------------------------------------|


  Verso Riff 4                                                               
                 PM PM PM PM PM PM PM PM PM      PM PM PM PM PM PM PM PM PM  
  E            S S  S  S  S  S  S  S  S  S  E  S S  S  S  S  S  S  S  S  S   
----------------------------------------------------------------------------|
----------------------------------------------------------------------------|
--7------------9----------------------------7--9----------------------------|
--7------------9----------------------------7--9----------------------------|
--5------------7----------------------------5--7----------------------------|
-----------------0--0--0--0--0--0--0--0--0-------0--0--0--0--0--0--0--0--0--|


       PM PM PM PM PM PM PM PM PM                          
  E  S S  S  S  S  S  S  S  S  S  S S S S S S S S S S S S  
----------------------------------------------------------|
----------------------------------8-8-8-7-7-7-8-8-8-7-7-7-|
--7--9----------------------------7-7-7-7-7-7-7-7-7-7-7-7-|
--7--9----------------------------------------------------|
--5--7----------------------------------------------------|
-------0--0--0--0--0--0--0--0--0--------------------------|


       PM PM PM PM PM PM PM PM PM      PM PM PM PM PM PM PM PM PM  
  E  S S  S  S  S  S  S  S  S  S  E  S S  S  S  S  S  S  S  S  S   
------------------------------------------------------------------|
------------------------------------------------------------------|
--7--9----------------------------7--9----------------------------|
--7--9----------------------------7--9----------------------------|
--5--7----------------------------5--7----------------------------|
-------0--0--0--0--0--0--0--0--0-------0--0--0--0--0--0--0--0--0--|


       PM PM PM PM PM PM PM PM PM                          
  E  S S  S  S  S  S  S  S  S  S  S S S S S S S S S S S S  
----------------------------------------------------------|
----------------------------------8-8-8-7-7-7-8-8-8-7-7-7-|
--7--9----------------------------7-7-7-7-7-7-7-7-7-7-7-7-|
--7--9----------------------------------------------------|
--5--7----------------------------------------------------|
-------0--0--0--0--0--0--0--0--0--------------------------|


       PM PM PM PM PM PM PM PM PM      PM PM PM PM PM PM PM PM PM  
  E  S S  S  S  S  S  S  S  S  S  E  S S  S  S  S  S  S  S  S  S   
------------------------------------------------------------------|
------------------------------------------------------------------|
--7--9----------------------------7--9----------------------------|
--7--9----------------------------7--9----------------------------|
--5--7----------------------------5--7----------------------------|
-------0--0--0--0--0--0--0--0--0-------0--0--0--0--0--0--0--0--0--|


       PM PM PM PM PM PM PM PM PM                          
  E  S S  S  S  S  S  S  S  S  S  S S S S S S S S S S S S  
----------------------------------------------------------|
----------------------------------8-8-8-7-7-7-8-8-8-7-7-7-|
--7--9----------------------------7-7-7-7-7-7-7-7-7-7-7-7-|
--7--9----------------------------------------------------|
--5--7----------------------------------------------------|
-------0--0--0--0--0--0--0--0--0--------------------------|


       PM PM PM PM PM PM PM PM PM      PM PM PM PM PM PM PM PM PM  
  E  S S  S  S  S  S  S  S  S  S  E  S S  S  S  S  S  S  S  S  S   
------------------------------------------------------------------|
------------------------------------------------------------------|
--7--9----------------------------7--9----------------------------|
--7--9----------------------------7--9----------------------------|
--5--7----------------------------5--7----------------------------|
-------0--0--0--0--0--0--0--0--0-------0--0--0--0--0--0--0--0--0--|


       PM PM PM PM PM PM PM PM PM                          
  E  S S  S  S  S  S  S  S  S  S  S S S S S S S S S S S S  
----------------------------------------------------------|
----------------------------------8-8-8-7-7-7-8-8-8-7-7-7-|
--7--9----------------------------7-7-7-7-7-7-7-7-7-7-7-7-|
--7--9----------------------------------------------------|
--5--7----------------------------------------------------|
-------0--0--0--0--0--0--0--0--0--------------------------|


                                     Solo 1 Dave Murray                      
  H.           E.  S S S E.  E.      H.                S   S  S S  H         
---------------------------------|------------------------------------------|
---------------------------------|--10b----------------8h-10p-8-------------|
--9------------------------------|------------------------------9~-L--------|
--9------------3---2-------------|------------------------------------------|
--7------------------3-2---------|------------------------------------------|
-------------------------3---2---|------------------------------------------|


  S.  S.S. S. S. S. S.  S.  S. S.  E.   E.   S.  S.  
----------------------------------10b---L---10br-7--|
--------------------8--10br-L--8--------------------|
--------------7--9----------------------------------|
--------7--9----------------------------------------|
--7--10---------------------------------------------|
----------------------------------------------------|


   W                  Q    E   E   
--10b-----------------L----L------|
------------------------------13--|
----------------------------------|
----------------------------------|
----------------------------------|
----------------------------------|


   Q.      E.   S   S   S S  S S S S S S   S  S E.   
----------------------------------------------------|
--12~------L---10h-12p-10-8-10-8-7-8-7--------------|
---------------------------------------9h-11p-9-7---|
----------------------------------------------------|
----------------------------------------------------|
----------------------------------------------------|


  Q.      E.   E.    E.   E.  E.   S   S   S  
---------------------------------------------|
---------------------------------------------|
--7b------L---11br---9-----------------------|
-------------------------12---L---10h-12p-10-|
---------------------------------------------|
---------------------------------------------|


  H.           S. S.  E.   E.   S.  S. 
-------------------------------10h-12-|
---------------------10b---L----------|
---------------7h-9-------------------|
--9-----------------------------------|
--------------------------------------|
--------------------------------------|


   Q.      E.   E.   Q.       S. S. S. S.  
--14b------L---12------------12-15-14-----|
--------------------15b---------------15b-|
------------------------------------------|
------------------------------------------|
------------------------------------------|
------------------------------------------|


   S. S. S   S  S   S.  S. E.  E.   S. S. Q.       
--12----------------------------------------------|
-----15----------------------------------15b------|
--------14br-L-12h-14p-12----------12-------------|
--------------------------14---L------14----------|
--------------------------------------------------|
--------------------------------------------------|


   H.            S.S.  S. S.S.  S. S. S. 
----------------------------------------|
--12---------------------------------10-|
-------------------9--11----9--11-12----|
----------------12-------12-------------|
----------------------------------------|
----------------------------------------|


   S. S. S. S. S. S. S. S. S. S. S. S. S. S. S. S. 
--------------------------10----10-12-10-12-14-12-|
-----10-12-10-12-13-12-13----13-------------------|
--12----------------------------------------------|
--------------------------------------------------|
--------------------------------------------------|
--------------------------------------------------|


   S. S. S. S. E.     S. S. H          S  S   E   
--14-15-14-15-17br---17-15-17~---------L-14br-L--|
-------------------------------------------------|
-------------------------------------------------|
-------------------------------------------------|
-------------------------------------------------|
-------------------------------------------------|


                                                       Puente             
   S   S   S  H          S  Q      Q     S  S   E      W                  
--12h-14p-12---------------------------------------|--14b----------------|
-------------13~---------L-15b-----L-----L-13p-12--|---------------------|
---------------------------------------------------|---------------------|
---------------------------------------------------|---------------------|
---------------------------------------------------|---------------------|
---------------------------------------------------|---------------------|


  W                   W                 
--L----------------|--L----------------|
-------------------|-------------------|
-------------------|-------------------|
-------------------|-------------------|
-------------------|-------------------|
-------------------|-------------------|


  Riff B                                                          
  PM     PM PM   PM   PM PM PM     PM PM PM   PM   PM             
  S      S  S  S S  S S  S  S  E.  S  S  S  S S  S S  S S S  S S  
-----------------------------------------------------------------|
-----------------------------------------------------------------|
-------------------------------4---------------------------------|
-------------------------------5----------------------7-7-7p-5---|
---------------5----7-----------------------5----7-------------7-|
--0------0--0----0----0--0--0------0--0--0----0----0-------------|


  PM PM PM   PM   PM PM PM     PM PM PM   PM   PM PM           
  S  S  S  S S  S S  S  S  E.  S  S  S  S S  S S  S  S S  S S  
--------------------------------------------------------------|
--------------------------------------------------------------|
---------------------------4----------------------------------|
---------------------------5-------------------------7-7p-5---|
-----------5----7-----------------------5----7--------------7-|
--0--0--0----0----0--0--0------0--0--0----0----0--0-----------|


  PM PM PM   PM   PM PM PM     PM PM PM   PM   PM PM           
  S  S  S  S S  S S  S  S  E.  S  S  S  S S  S S  S  S S  S S  
--------------------------------------------------------------|
--------------------------------------------------------------|
---------------------------4----------------------------------|
---------------------------5-------------------------7-7p-5---|
-----------5----7-----------------------5----7--------------7-|
--0--0--0----0----0--0--0------0--0--0----0----0--0-----------|


  PM PM PM   PM   PM PM PM     PM PM PM   PM                  
  S  S  S  S S  S S  S  S  E.  S  S  S  S S  S S  S S S S  S  
-------------------------------------------------------------|
-------------------------------------------------------------|
---------------------------4---------------------------------|
---------------------------5-----------------7-7p-5---5------|
-----------5----7-----------------------5-----------7---7p-5-|
--0--0--0----0----0--0--0------0--0--0----0------------------|


  Verso Riff 5                                                           
  PM           PM PM   PM   PM PM PM     PM PM PM   PM   PM PM           
  S            S  S  S S  S S  S  S  E.  S  S  S  S S  S S  S  S S  S S  
------------------------------------------------------------------------|
------------------------------------------------------------------------|
-------------------------------------4----------------------------------|
-------------------------------------5-------------------------7-7p-5---|
---------------------5----7-----------------------5----7--------------7-|
--0------------0--0----0----0--0--0------0--0--0----0----0--0-----------|


  PM PM PM   PM   PM PM PM     PM PM PM   PM   PM PM           
  S  S  S  S S  S S  S  S  E.  S  S  S  S S  S S  S  S S  S S  
--------------------------------------------------------------|
--------------------------------------------------------------|
---------------------------4----------------------------------|
---------------------------5-------------------------7-7p-5---|
-----------5----7-----------------------5----7--------------7-|
--0--0--0----0----0--0--0------0--0--0----0----0--0-----------|


  PM PM PM   PM   PM PM PM     PM PM PM   PM   PM PM           
  S  S  S  S S  S S  S  S  E.  S  S  S  S S  S S  S  S S  S S  
--------------------------------------------------------------|
--------------------------------------------------------------|
---------------------------4----------------------------------|
---------------------------5-------------------------7-7p-5---|
-----------5----7-----------------------5----7--------------7-|
--0--0--0----0----0--0--0------0--0--0----0----0--0-----------|


  PM PM PM   PM   PM PM PM     PM PM PM   PM                  
  S  S  S  S S  S S  S  S  E.  S  S  S  S S  S S  S S S S  S  
-------------------------------------------------------------|
-------------------------------------------------------------|
---------------------------4---------------------------------|
---------------------------5-----------------7-7p-5---5------|
-----------5----7-----------------------5-----------7---7p-5-|
--0--0--0----0----0--0--0------0--0--0----0------------------|


  PM PM PM   PM   PM PM PM     PM PM PM   PM   PM PM           
  S  S  S  S S  S S  S  S  E.  S  S  S  S S  S S  S  S S  S S  
--------------------------------------------------------------|
--------------------------------------------------------------|
---------------------------4----------------------------------|
---------------------------5-------------------------7-7p-5---|
-----------5----7-----------------------5----7--------------7-|
--0--0--0----0----0--0--0------0--0--0----0----0--0-----------|


  PM PM PM   PM   PM PM PM     PM PM PM   PM   PM PM           
  S  S  S  S S  S S  S  S  E.  S  S  S  S S  S S  S  S S  S S  
--------------------------------------------------------------|
--------------------------------------------------------------|
---------------------------4----------------------------------|
---------------------------5-------------------------7-7p-5---|
-----------5----7-----------------------5----7--------------7-|
--0--0--0----0----0--0--0------0--0--0----0----0--0-----------|


  PM PM PM   PM   PM PM PM     PM PM PM   PM   PM PM           
  S  S  S  S S  S S  S  S  E.  S  S  S  S S  S S  S  S S  S S  
--------------------------------------------------------------|
--------------------------------------------------------------|
---------------------------4----------------------------------|
---------------------------5-------------------------7-7p-5---|
-----------5----7-----------------------5----7--------------7-|
--0--0--0----0----0--0--0------0--0--0----0----0--0-----------|


  PM PM PM   PM   PM PM PM     PM PM PM   PM                  
  S  S  S  S S  S S  S  S  E.  S  S  S  S S  S S  S S S S  S  
-------------------------------------------------------------|
-------------------------------------------------------------|
---------------------------4---------------------------------|
---------------------------5-----------------7-7p-5---5------|
-----------5----7-----------------------5-----------7---7p-5-|
--0--0--0----0----0--0--0------0--0--0----0------------------|


  PM PM PM   PM   PM PM PM     PM PM PM   PM   PM             
  S  S  S  S S  S S  S  S  E.  S  S  S  S S  S S  S S S  S S  
-------------------------------------------------------------|
-------------------------------------------------------------|
---------------------------4---------------------------------|
---------------------------5----------------------7-7-7p-5---|
-----------5----7-----------------------5----7-------------7-|
--0--0--0----0----0--0--0------0--0--0----0----0-------------|


  PM PM PM   PM   PM PM PM     PM PM PM   PM   PM             
  S  S  S  S S  S S  S  S  E.  S  S  S  S S  S S  S S S  S S  
-------------------------------------------------------------|
-------------------------------------------------------------|
---------------------------4---------------------------------|
---------------------------5----------------------7-7-7p-5---|
-----------5----7-----------------------5----7-------------7-|
--0--0--0----0----0--0--0------0--0--0----0----0-------------|


  PM PM PM   PM   PM PM PM     PM PM PM   PM   PM PM           
  S  S  S  S S  S S  S  S  E.  S  S  S  S S  S S  S  S S  S S  
--------------------------------------------------------------|
--------------------------------------------------------------|
---------------------------4----------------------------------|
---------------------------5-------------------------7-7p-5---|
-----------5----7-----------------------5----7--------------7-|
--0--0--0----0----0--0--0------0--0--0----0----0--0-----------|


  Solo 2 Adrian Smith                                                          
  PM                  PM PM   PM   PM PM PM     PM PM PM   PM                  
  S                   S  S  S S  S S  S  S  E.  S  S  S  S S  S S  S S S S  S  
------------------------------------------------------------------------------|
------------------------------------------------------------------------------|
--------------------------------------------4---------------------------------|
--------------------------------------------5-----------------7-7p-5---5------|
----------------------------5----7-----------------------5-----------7---7p-5-|
--0-------------------0--0----0----0--0--0------0--0--0----0------------------|


  PM PM PM   PM   PM PM PM     PM PM PM   PM   PM PM           
  S  S  S  S S  S S  S  S  E.  S  S  S  S S  S S  S  S S  S S  
--------------------------------------------------------------|
--------------------------------------------------------------|
---------------------------4----------------------------------|
---------------------------5-------------------------7-7p-5---|
-----------5----7-----------------------5----7--------------7-|
--0--0--0----0----0--0--0------0--0--0----0----0--0-----------|


  PM PM PM   PM   PM PM PM     PM PM PM   PM   PM             
  S  S  S  S S  S S  S  S  E.  S  S  S  S S  S S  S S S  S S  
-------------------------------------------------------------|
-------------------------------------------------------------|
---------------------------4---------------------------------|
---------------------------5----------------------7-7-7p-5---|
-----------5----7-----------------------5----7-------------7-|
--0--0--0----0----0--0--0------0--0--0----0----0-------------|


  PM PM PM   PM   PM PM PM     PM PM PM   PM   PM PM           
  S  S  S  S S  S S  S  S  E.  S  S  S  S S  S S  S  S S  S S  
--------------------------------------------------------------|
--------------------------------------------------------------|
---------------------------4----------------------------------|
---------------------------5-------------------------7-7p-5---|
-----------5----7-----------------------5----7--------------7-|
--0--0--0----0----0--0--0------0--0--0----0----0--0-----------|


  PM PM PM   PM   PM PM PM     PM PM PM   PM                  
  S  S  S  S S  S S  S  S  E.  S  S  S  S S  S S  S S S S  S  
-------------------------------------------------------------|
-------------------------------------------------------------|
---------------------------4---------------------------------|
---------------------------5-----------------7-7p-5---5------|
-----------5----7-----------------------5-----------7---7p-5-|
--0--0--0----0----0--0--0------0--0--0----0------------------|


  PM PM PM   PM   PM PM PM     PM PM PM   PM   PM PM           
  S  S  S  S S  S S  S  S  E.  S  S  S  S S  S S  S  S S  S S  
--------------------------------------------------------------|
--------------------------------------------------------------|
---------------------------4----------------------------------|
---------------------------5-------------------------7-7p-5---|
-----------5----7-----------------------5----7--------------7-|
--0--0--0----0----0--0--0------0--0--0----0----0--0-----------|


  PM PM PM   PM   PM PM PM     PM PM PM   PM   PM             
  S  S  S  S S  S S  S  S  E.  S  S  S  S S  S S  S S S  S S  
-------------------------------------------------------------|
-------------------------------------------------------------|
---------------------------4---------------------------------|
---------------------------5----------------------7-7-7p-5---|
-----------5----7-----------------------5----7-------------7-|
--0--0--0----0----0--0--0------0--0--0----0----0-------------|


  PM PM PM   PM   PM PM PM     PM PM PM   PM   PM PM           
  S  S  S  S S  S S  S  S  E.  S  S  S  S S  S S  S  S S  S S  
--------------------------------------------------------------|
--------------------------------------------------------------|
---------------------------4----------------------------------|
---------------------------5-------------------------7-7p-5---|
-----------5----7-----------------------5----7--------------7-|
--0--0--0----0----0--0--0------0--0--0----0----0--0-----------|


  PM PM PM   PM   PM PM PM     PM PM PM   PM                  
  S  S  S  S S  S S  S  S  E.  S  S  S  S S  S S  S S S S  S  
-------------------------------------------------------------|
-------------------------------------------------------------|
---------------------------4---------------------------------|
---------------------------5-----------------7-7p-5---5------|
-----------5----7-----------------------5-----------7---7p-5-|
--0--0--0----0----0--0--0------0--0--0----0------------------|


  PM PM PM   PM   PM PM PM     PM PM PM   PM   PM PM           
  S  S  S  S S  S S  S  S  E.  S  S  S  S S  S S  S  S S  S S  
--------------------------------------------------------------|
--------------------------------------------------------------|
---------------------------4----------------------------------|
---------------------------5-------------------------7-7p-5---|
-----------5----7-----------------------5----7--------------7-|
--0--0--0----0----0--0--0------0--0--0----0----0--0-----------|


  PM PM PM   PM   PM PM PM     PM PM PM   PM   PM             
  S  S  S  S S  S S  S  S  E.  S  S  S  S S  S S  S S S  S S  
-------------------------------------------------------------|
-------------------------------------------------------------|
---------------------------4---------------------------------|
---------------------------5----------------------7-7-7p-5---|
-----------5----7-----------------------5----7-------------7-|
--0--0--0----0----0--0--0------0--0--0----0----0-------------|


  PM PM PM   PM   PM PM PM     PM PM PM   PM   PM PM           
  S  S  S  S S  S S  S  S  E.  S  S  S  S S  S S  S  S S  S S  
--------------------------------------------------------------|
--------------------------------------------------------------|
---------------------------4----------------------------------|
---------------------------5-------------------------7-7p-5---|
-----------5----7-----------------------5----7--------------7-|
--0--0--0----0----0--0--0------0--0--0----0----0--0-----------|


  PM PM PM   PM   PM PM PM     PM PM PM   PM                  
  S  S  S  S S  S S  S  S  E.  S  S  S  S S  S S  S S S S  S  
-------------------------------------------------------------|
-------------------------------------------------------------|
---------------------------4---------------------------------|
---------------------------5-----------------7-7p-5---5------|
-----------5----7-----------------------5-----------7---7p-5-|
--0--0--0----0----0--0--0------0--0--0----0------------------|


  PM PM PM   PM   PM PM PM     PM PM PM   PM   PM PM           
  S  S  S  S S  S S  S  S  E.  S  S  S  S S  S S  S  S S  S S  
--------------------------------------------------------------|
--------------------------------------------------------------|
---------------------------4----------------------------------|
---------------------------5-------------------------7-7p-5---|
-----------5----7-----------------------5----7--------------7-|
--0--0--0----0----0--0--0------0--0--0----0----0--0-----------|


  PM PM PM   PM   PM PM PM     PM PM PM   PM   PM             
  S  S  S  S S  S S  S  S  E.  S  S  S  S S  S S  S S S  S S  
-------------------------------------------------------------|
-------------------------------------------------------------|
---------------------------4---------------------------------|
---------------------------5----------------------7-7-7p-5---|
-----------5----7-----------------------5----7-------------7-|
--0--0--0----0----0--0--0------0--0--0----0----0-------------|


                                  Outro                                    
  PM PM PM   PM   PM PM PM                                                 
  S  S  S  S S  S S  S  S  E.     E.    S S S E.  E.     W                 
-------------------------------|----------------------|-------------------|
-------------------------------|----------------------|-------------------|
---------------------------4---|----------------------|--9----------------|
---------------------------5---|--3-----2-------------|--9----------------|
-----------5----7--------------|----------3-2---------|--7----------------|
--0--0--0----0----0--0--0------|--------------3---2---|-------------------|


  W                   H        Q    E  E     E.   S   
-------------------|----------------------|---------||
-------------------|----------------------|---------||
--L----------------|--L-------------7--9--|--L\-----||
--L----------------|--L-------------7--9--|--L\-----||
--L----------------|--L-------------5--7--|--L\-----||
-------------------|----------------------|---------||




Guitar #3:
                               
Janick Gers

          Intro                                   
     S    W                   H.           E.  S  
E||----|-------------------|---------------------|
B||----|-------------------|---------------------|
G||----|-------------------|-------------------7-|
D||----|-------------------|-------------------7-|
A||----|-------------------|-------------------5-|
E||----|-------------------|---------------------|


  Verso Riff 1                                              
  S            E.  H.              S H        E  E  E  T T  
--------------------------------|--------------------------|
--------------------------------|--------------------------|
--9-----------------------------|--7-----------------------|
--9-----------------------------|--7-------------7--7--9-9-|
--7-----------------------------|--5-------------5--5--7-7-|
--------------------------------|--------------------------|


  S E.  H.              S H        E  E  E  T T    S H.           E  T T  
---------------------|--------------------------|------------------------|
---------------------|--------------------------|------------------------|
--9------------------|--7-----------------------|--5---------------------|
--9------------------|--7-------------7--7--5-5-|--5--------------7--9-9-|
--7------------------|--5-------------5--5--3-3-|--3--------------5--7-7-|
---------------------|--------------------------|------------------------|


                             Verso Riff 2                             
  S E.  H           S S S    E            S S S S S S E  S S S S S S  
-----------------|--------|------------------------------------------|
-----------------|--------|------------------------------------------|
--9--------------|--------|------------------------------------------|
--9--------------|--------|--5----------------5---5-5-7------7---7-7-|
--7--------------|--7-6-5-|--3------------3-3-3-3-3-3-5--5-5-5-5-5-5-|
-----------------|--------|------------------------------------------|


  E   S S S S S S E   S S S S S S    E  S S S S S S E  S S S S S S  
----------------------------------|--------------------------------|
----------------------------------|--------------------------------|
----------------------------------|--------------------------------|
--7s--9---9---9-9-7s--9---9-------|--5------5---5-5-7------7---7-7-|
--5s--7-7-7-7-7-7-5s--7-7-7-7-6-5-|--3--3-3-3-3-3-3-5--5-5-5-5-5-5-|
----------------------------------|--------------------------------|


  E   S S S S S S E   S S S S S S    E  S S S S S S E  S S S S S S  
----------------------------------|--------------------------------|
----------------------------------|--------------------------------|
----------------------------------|--------------------------------|
--7s--9---9---9-9-7s--9---9-------|--5------5---5-5-7------7---7-7-|
--5s--7-7-7-7-7-7-5s--7-7-7-7-6-5-|--3--3-3-3-3-3-3-5--5-5-5-5-5-5-|
----------------------------------|--------------------------------|


  E   S S S S S S E   S S S S S S    E  S S S S S S E  S S S S S S  
----------------------------------|--------------------------------|
----------------------------------|--------------------------------|
----------------------------------|--------------------------------|
--7s--9---9---9-9-7s--9---9-------|--5------5---5-5-7------7---7-7-|
--5s--7-7-7-7-7-7-5s--7-7-7-7-6-5-|--3--3-3-3-3-3-3-5--5-5-5-5-5-5-|
----------------------------------|--------------------------------|


  E   S S S S S S E   S S S S S S    E  S S S S S S E  S S S S S S  
----------------------------------|--------------------------------|
----------------------------------|--------------------------------|
----------------------------------|--------------------------------|
--7s--9---9---9-9-7s--9---9-------|--5------5---5-5-7----7-7---7-7-|
--5s--7-7-7-7-7-7-5s--7-7-7-7-6-5-|--3--3-3-3-3-3-3-5--5-5-5-5-5-5-|
----------------------------------|--------------------------------|


  Break                                         Verso Riff 1                   
  S     E.  H.              W                   S            E.  H.            
-------------------------|-------------------|--------------------------------|
-------------------------|-------------------|--------------------------------|
--9----------------------|-------------------|--9-----------------------------|
--9----------------------|-------------------|--9-----------------------------|
--7----------------------|-------------------|--7-----------------------------|
-------------------------|-------------------|--------------------------------|


  H        E.  E  E  T T    S E.  H.              H        E.  E  E  T T  
-------------------------|---------------------|-------------------------|
-------------------------|---------------------|-------------------------|
--7--------L-------------|--9------------------|--7--------L-------------|
--7--------L---7--7--9-9-|--9------------------|--7--------L---7--7--5-5-|
--5--------L---5--5--7-7-|--7------------------|--5--------L---5--5--3-3-|
-------------------------|---------------------|-------------------------|


  S H.           E  T T    S E.  H           S S S  
------------------------|-----------------|--------|
------------------------|-----------------|--------|
--5---------------------|--9--------------|--------|
--5--------------7--9-9-|--9--------------|--------|
--3--------------5--7-7-|--7--------------|--7-6-5-|
------------------------|-----------------|--------|


  Verso Riff 2                                                                
  E            S S S S S S E  S S S S S S    E   S S S S S S E   S S S S S S  
------------------------------------------|----------------------------------|
------------------------------------------|----------------------------------|
------------------------------------------|----------------------------------|
--5----------------5---5-5-7------7---7-7-|--7s--9---9---9-9-7s--9---9-------|
--3------------3-3-3-3-3-3-5--5-5-5-5-5-5-|--5s--7-7-7-7-7-7-5s--7-7-7-7-6-5-|
------------------------------------------|----------------------------------|


  E  S S S S S S E  S S S S S S    E   S S S S S S E   S S S S S S  
--------------------------------|----------------------------------|
--------------------------------|----------------------------------|
--------------------------------|----------------------------------|
--5------5---5-5-7------7---7-7-|--7s--9---9---9-9-7s--9---9-------|
--3--3-3-3-3-3-3-5--5-5-5-5-5-5-|--5s--7-7-7-7-7-7-5s--7-7-7-7-6-5-|
--------------------------------|----------------------------------|


  E  S S S S S S E  S S S S S S    E   S S S S S S E   S S S S S S  
--------------------------------|----------------------------------|
--------------------------------|----------------------------------|
--------------------------------|----------------------------------|
--5------5---5-5-7------7---7-7-|--7s--9---9---9-9-7s--9---9-------|
--3--3-3-3-3-3-3-5--5-5-5-5-5-5-|--5s--7-7-7-7-7-7-5s--7-7-7-7-6-5-|
--------------------------------|----------------------------------|


  E  S S S S S S E  S S S S S S    E   S S S S S S E   S S S S S S  
--------------------------------|----------------------------------|
--------------------------------|----------------------------------|
--------------------------------|----------------------------------|
--5------5---5-5-7------7---7-7-|--7s--9---9---9-9-7s--9---9-------|
--3--3-3-3-3-3-3-5--5-5-5-5-5-5-|--5s--7-7-7-7-7-7-5s--7-7-7-7-6-5-|
--------------------------------|----------------------------------|


                                   Break                         
  E  S S S S S S E  S S S S S S    H.              H.            
--------------------------------|---------------|---------------|
--------------------------------|---------------|---------------|
--------------------------------|---------------|---------------|
--5------5---5-5-7----7-7---7-7-|--9------------|--L------------|
--3--3-3-3-3-3-3-5--5-5-5-5-5-5-|--7------------|--L------------|
--------------------------------|--0------------|--L------------|


  Riff A                                
  W.                  W.                
-------------------|-------------------|
-------------------|-------------------|
-------------------|-------------------|
-------------------|-------------------|
-------------------|-------------------|
-------------------|-------------------|


  Verso Riff 3                                                            
  PM           PM PM   PM   PM PM PM     PM PM PM   PM   PM PM PM         
  S            S  S  S S  S S  S  S  E.  S  S  S  S S  S S  S  S  S  S S  
-------------------------------------------------------------------------|
-------------------------------------------------------------------------|
-------------------------------------------------------------------------|
-------------------------------------5----------------------------7p-5---|
---------------------5----7----------5------------5----7---------------7-|
--0------------0--0----0----0--0--0------0--0--0----0----0--0--0---------|


  PM PM PM   PM   PM PM PM     PM PM PM   PM   PM PM           
  S  S  S  S S  S S  S  S  E.  S  S  S  S S  S S  S  S S  S S  
--------------------------------------------------------------|
--------------------------------------------------------------|
--------------------------------------------------------------|
---------------------------5-------------------------7-7p-5---|
-----------5----7----------5------------5----7--------------7-|
--0--0--0----0----0--0--0------0--0--0----0----0--0-----------|


  S S S S S S S S S S S S S S S S S S S S S S S S  
--------------------------------------------------|
--------------------------------------------------|
--------------------------------------------------|
--------5-5-5-4-4-4-5-5-5-------5-5-5-4-4-4-5-5-5-|
--3-3-3-------------------3-3-3-------------------|
--------------------------------------------------|


  PM PM PM   PM   PM PM PM     PM PM PM   PM   PM PM PM         
  S  S  S  S S  S S  S  S  E.  S  S  S  S S  S S  S  S  S  S S  
---------------------------------------------------------------|
---------------------------------------------------------------|
---------------------------------------------------------------|
---------------------------5----------------------------7p-5---|
-----------5----7----------5------------5----7---------------7-|
--0--0--0----0----0--0--0------0--0--0----0----0--0--0---------|


  PM PM PM   PM   PM PM PM     PM PM PM   PM   PM PM PM         
  S  S  S  S S  S S  S  S  E.  S  S  S  S S  S S  S  S  S  S S  
---------------------------------------------------------------|
---------------------------------------------------------------|
---------------------------------------------------------------|
---------------------------5----------------------------7p-5---|
-----------5----7----------5------------5----7---------------7-|
--0--0--0----0----0--0--0------0--0--0----0----0--0--0---------|


  PM PM PM   PM   PM PM PM     PM PM PM   PM   PM PM           
  S  S  S  S S  S S  S  S  E.  S  S  S  S S  S S  S  S S  S S  
--------------------------------------------------------------|
--------------------------------------------------------------|
--------------------------------------------------------------|
---------------------------5-------------------------7-7p-5---|
-----------5----7----------5------------5----7--------------7-|
--0--0--0----0----0--0--0------0--0--0----0----0--0-----------|


  S S S S S S S S S S S S S S S S S S S S S S S S  
--------------------------------------------------|
--------------------------------------------------|
--------------------------------------------------|
--------5-5-5-4-4-4-5-5-5-------5-5-5-4-4-4-5-5-5-|
--3-3-3-------------------3-3-3-------------------|
--------------------------------------------------|


  PM PM PM   PM   PM PM PM     PM PM PM   PM   PM PM PM          
  S  S  S  S S  S S  S  S  E.  S  S  S  S S  S S  S  S  S  S  S  
----------------------------------------------------------------|
----------------------------------------------------------------|
----------------------------------------------------------------|
---------------------------5----------------------------7p-5p-0-|
-----------5----7----------5------------5----7------------------|
--0--0--0----0----0--0--0------0--0--0----0----0--0--0----------|


  Coro                                                    
  H.           H.              H.           H.            
----------------------------|----------------------------|
----------------------------|----------------------------|
--5------------7------------|--4------------5------------|
--5------------7------------|--4------------5------------|
--3------------5------------|--2------------3------------|
----------------------------|----------------------------|


  H.           H.            
----------------------------|
----------------------------|
--5------------7------------|
--5------------7------------|
--3------------5------------|
----------------------------|


       PM PM PM PM PM PM PM PM PM      PM PM PM PM PM PM PM PM PM  
  E  S S  S  S  S  S  S  S  S  S  E  S S  S  S  S  S  S  S  S  S   
------------------------------------------------------------------|
------------------------------------------------------------------|
------------------------------------------------------------------|
--7--9----------------------------7--9----------------------------|
--5--7-7--7--7--7--7--7--7--7--7--5--7-7--7--7--7--7--7--7--7--7--|
------------------------------------------------------------------|


  H.           H.              H.           H.            
----------------------------|----------------------------|
----------------------------|----------------------------|
--5------------7------------|--4------------5------------|
--5------------7------------|--4------------5------------|
--3------------5------------|--2------------3------------|
----------------------------|----------------------------|


  H.           H.            
----------------------------|
----------------------------|
--5------------7------------|
--5------------7------------|
--3------------5------------|
----------------------------|


  PM PM PM   PM   PM PM PM     PM PM PM   PM   PM PM PM         
  S  S  S  S S  S S  S  S  E.  S  S  S  S S  S S  S  S  S  S S  
---------------------------------------------------------------|
---------------------------------------------------------------|
---------------------------------------------------------------|
---------------------------5----------------------------7p-5---|
-----------5----7----------5------------5----7---------------7-|
--0--0--0----0----0--0--0------0--0--0----0----0--0--0---------|


  Verso Riff 3                                                           
  PM           PM PM   PM   PM PM PM     PM PM PM   PM   PM PM           
  S            S  S  S S  S S  S  S  E.  S  S  S  S S  S S  S  S S  S S  
------------------------------------------------------------------------|
------------------------------------------------------------------------|
------------------------------------------------------------------------|
-------------------------------------5-------------------------7-7p-5---|
---------------------5----7----------5------------5----7--------------7-|
--0------------0--0----0----0--0--0------0--0--0----0----0--0-----------|


  PM PM PM   PM   PM PM PM     PM PM PM   PM   PM             
  S  S  S  S S  S S  S  S  E.  S  S  S  S S  S S  S S S  S S  
-------------------------------------------------------------|
-------------------------------------------------------------|
-------------------------------------------------------------|
---------------------------5----------------------7-7-7p-5---|
-----------5----7----------5------------5----7-------------7-|
--0--0--0----0----0--0--0------0--0--0----0----0-------------|


  S S S S S S S S S S S S S S S S S S S S S S S S  
--------------------------------------------------|
--------------------------------------------------|
--------------------------------------------------|
--------5-5-5-4-4-4-5-5-5-------5-5-5-4-4-4-5-5-5-|
--3-3-3-------------------3-3-3-------------------|
--------------------------------------------------|


  PM PM PM   PM   PM PM PM     PM PM PM   PM   PM             
  S  S  S  S S  S S  S  S  E.  S  S  S  S S  S S  S S S  S S  
-------------------------------------------------------------|
-------------------------------------------------------------|
-------------------------------------------------------------|
---------------------------5----------------------7-7-7p-5---|
-----------5----7----------5------------5----7-------------7-|
--0--0--0----0----0--0--0------0--0--0----0----0-------------|


  PM PM PM   PM   PM PM PM     PM PM PM   PM   PM PM PM         
  S  S  S  S S  S S  S  S  E.  S  S  S  S S  S S  S  S  S  S S  
---------------------------------------------------------------|
---------------------------------------------------------------|
---------------------------------------------------------------|
---------------------------5----------------------------7p-5---|
-----------5----7----------5------------5----7---------------7-|
--0--0--0----0----0--0--0------0--0--0----0----0--0--0---------|


  PM PM PM   PM   PM PM PM     PM PM PM   PM   PM PM           
  S  S  S  S S  S S  S  S  E.  S  S  S  S S  S S  S  S S  S S  
--------------------------------------------------------------|
--------------------------------------------------------------|
--------------------------------------------------------------|
---------------------------5-------------------------7-7p-5---|
-----------5----7----------5------------5----7--------------7-|
--0--0--0----0----0--0--0------0--0--0----0----0--0-----------|


  S S S S S S S S S S S S S S S S S S S S S S S S  
--------------------------------------------------|
--------------------------------------------------|
--------------------------------------------------|
--------5-5-5-4-4-4-5-5-5-------5-5-5-4-4-4-5-5-5-|
--3-3-3-------------------3-3-3-------------------|
--------------------------------------------------|


  PM PM PM   PM   PM PM PM     PM PM PM   PM   PM PM PM          
  S  S  S  S S  S S  S  S  E.  S  S  S  S S  S S  S  S  S  S  S  
----------------------------------------------------------------|
----------------------------------------------------------------|
----------------------------------------------------------------|
---------------------------5----------------------------7p-5p-0-|
-----------5----7----------5------------5----7------------------|
--0--0--0----0----0--0--0------0--0--0----0----0--0--0----------|


  Coro                                                    
  H.           H.              H.           H.            
----------------------------|----------------------------|
----------------------------|----------------------------|
--5------------7------------|--4------------5------------|
--5------------7------------|--4------------5------------|
--3------------5------------|--2------------3------------|
----------------------------|----------------------------|


  H.           H.            
----------------------------|
----------------------------|
--5------------7------------|
--5------------7------------|
--3------------5------------|
----------------------------|


       PM PM PM PM PM PM PM PM PM      PM PM PM PM PM PM PM PM PM  
  E  S S  S  S  S  S  S  S  S  S  E  S S  S  S  S  S  S  S  S  S   
------------------------------------------------------------------|
------------------------------------------------------------------|
------------------------------------------------------------------|
--7--9----------------------------7--9----------------------------|
--5--7-7--7--7--7--7--7--7--7--7--5--7-7--7--7--7--7--7--7--7--7--|
------------------------------------------------------------------|


  H.           H.              H.           H.            
----------------------------|----------------------------|
----------------------------|----------------------------|
--5------------7------------|--4------------5------------|
--5------------7------------|--4------------5------------|
--3------------5------------|--2------------3------------|
----------------------------|----------------------------|


  H.           H.            
----------------------------|
----------------------------|
--5------------7------------|
--5------------7------------|
--3------------5------------|
----------------------------|


    PM PM PM PM PM PM PM PM PM PM PM                               
  S S  S  S  S  S  S  S  S  S  S  S  S  S S S S S  S  S S  S  S S  
------------------------------------------------------------------|
------------------------------------------------------------------|
-------------------------------------5p-4---4---------------------|
--4---------------------------------------7---7-5h-7p-5-4h-5p-4---|
--2-2--2--2--2--2--2--2--2--2--2--2-----------------------------5-|
------------------------------------------------------------------|


  Verso Riff 4                                                               
                 PM PM PM PM PM PM PM PM PM      PM PM PM PM PM PM PM PM PM  
  E            S S  S  S  S  S  S  S  S  S  E  S S  S  S  S  S  S  S  S  S   
----------------------------------------------------------------------------|
----------------------------------------------------------------------------|
----------------------------------------------------------------------------|
--7------------9----------------------------7--9----------------------------|
--5------------7-7--7--7--7--7--7--7--7--7--5--7-7--7--7--7--7--7--7--7--7--|
----------------------------------------------------------------------------|


       PM PM PM PM PM PM PM PM PM                          
  E  S S  S  S  S  S  S  S  S  S  S S S S S S S S S S S S  
----------------------------------------------------------|
----------------------------------------------------------|
----------------------------------4-4-4-4-4-4-4-4-4-4-4-4-|
--7--9----------------------------5-5-5-4-4-4-5-5-5-4-4-4-|
--5--7-7--7--7--7--7--7--7--7--7--------------------------|
----------------------------------------------------------|


       PM PM PM PM PM PM PM PM PM      PM PM PM PM PM PM PM PM PM  
  E  S S  S  S  S  S  S  S  S  S  E  S S  S  S  S  S  S  S  S  S   
------------------------------------------------------------------|
------------------------------------------------------------------|
------------------------------------------------------------------|
--7--9----------------------------7--9----------------------------|
--5--7-7--7--7--7--7--7--7--7--7--5--7-7--7--7--7--7--7--7--7--7--|
------------------------------------------------------------------|


       PM PM PM PM PM PM PM PM PM                          
  E  S S  S  S  S  S  S  S  S  S  S S S S S S S S S S S S  
----------------------------------------------------------|
----------------------------------------------------------|
----------------------------------4-4-4-4-4-4-4-4-4-4-4-4-|
--7--9----------------------------5-5-5-4-4-4-5-5-5-4-4-4-|
--5--7-7--7--7--7--7--7--7--7--7--------------------------|
----------------------------------------------------------|


       PM PM PM PM PM PM PM PM PM      PM PM PM PM PM PM PM PM PM  
  E  S S  S  S  S  S  S  S  S  S  E  S S  S  S  S  S  S  S  S  S   
------------------------------------------------------------------|
------------------------------------------------------------------|
------------------------------------------------------------------|
--7--9----------------------------7--9----------------------------|
--5--7-7--7--7--7--7--7--7--7--7--5--7-7--7--7--7--7--7--7--7--7--|
------------------------------------------------------------------|


       PM PM PM PM PM PM PM PM PM                          
  E  S S  S  S  S  S  S  S  S  S  S S S S S S S S S S S S  
----------------------------------------------------------|
----------------------------------------------------------|
----------------------------------4-4-4-4-4-4-4-4-4-4-4-4-|
--7--9----------------------------5-5-5-4-4-4-5-5-5-4-4-4-|
--5--7-7--7--7--7--7--7--7--7--7--------------------------|
----------------------------------------------------------|


       PM PM PM PM PM PM PM PM PM      PM PM PM PM PM PM PM PM PM  
  E  S S  S  S  S  S  S  S  S  S  E  S S  S  S  S  S  S  S  S  S   
------------------------------------------------------------------|
------------------------------------------------------------------|
------------------------------------------------------------------|
--7--9----------------------------7--9----------------------------|
--5--7-7--7--7--7--7--7--7--7--7--5--7-7--7--7--7--7--7--7--7--7--|
------------------------------------------------------------------|


       PM PM PM PM PM PM PM PM PM                          
  E  S S  S  S  S  S  S  S  S  S  S S S S S S S S S S S S  
----------------------------------------------------------|
----------------------------------------------------------|
----------------------------------4-4-4-4-4-4-4-4-4-4-4-4-|
--7--9----------------------------5-5-5-4-4-4-5-5-5-4-4-4-|
--5--7-7--7--7--7--7--7--7--7--7--------------------------|
----------------------------------------------------------|


                                    Solo 1 Dave Murray                          
                                                                            PM  
  H.           E.  S S S E.  E.     Q.                 H.           E  E  T S.  
---------------------------------|---------------------------------------------|
---------------------------------|---------------------------------------------|
---------------------------------|---------------------------------------------|
--9------------3---2-------------|--2------------------9------------L--9----9--|
--7------------------3-2---------|--2------------------7------------L--7----7--|
--0----------------------3---2---|--0------------------------------------------|


                             PM                                    
  W                Q    E  T S.    H.           E.  S S S E.  E.   
--------------------------------|---------------------------------|
--------------------------------|---------------------------------|
--------------------------------|---------------------------------|
--7----------------L----7----7--|--5------------3---2-------------|
--5----------------L----5----5--|--3------------------3-2---------|
--------------------------------|-------------------------3---2---|


                              PM                               PM  
  Q.     H.           E  E  T S.    W                Q    E  T S.  
---------------------------------|--------------------------------|
---------------------------------|--------------------------------|
---------------------------------|--------------------------------|
--2------9------------L--9----9--|--7----------------L----7----7--|
--2------7------------L--7----7--|--5----------------L----5----5--|
--0------------------------------|--------------------------------|


                                                                PM  
  H.           E.  S S S E.  E.     Q.     H.           E  E  T S.  
---------------------------------|---------------------------------|
---------------------------------|---------------------------------|
---------------------------------|---------------------------------|
--5------------3---2-------------|--2------9------------L--9----9--|
--3------------------3-2---------|--2------7------------L--7----7--|
-------------------------3---2---|--0------------------------------|


                             PM                                    
  W                Q    E  T S.    H.           E.  S S S E.  E.   
--------------------------------|---------------------------------|
--------------------------------|---------------------------------|
--------------------------------|---------------------------------|
--7----------------L----7----7--|--5------------3---2-------------|
--5----------------L----5----5--|--3------------------3-2---------|
--------------------------------|-------------------------3---2---|


                              PM                               PM  
  Q.     H.           E  E  T S.    W                Q    E  T S.  
---------------------------------|--------------------------------|
---------------------------------|--------------------------------|
---------------------------------|--------------------------------|
--2------9------------L--9----9--|--7----------------L----7----7--|
--2------7------------L--7----7--|--5----------------L----5----5--|
--0------------------------------|--------------------------------|


                                    Puente            
  H.           E.  S S S E.  E.     W                 
---------------------------------|-------------------|
---------------------------------|-------------------|
---------------------------------|--9----------------|
--5------------3---2-------------|--9----------------|
--3------------------3-2---------|--7----------------|
-------------------------3---2---|-------------------|


           PM PM PM PM PM PM PM PM  
  H        S  S  S  S  S  S  S  S   
-----------------------------------|
-----------------------------------|
--L--------------------------------|
--L--------------------------------|
--L--------7--7--7--7--7--7--7--7--|
-----------------------------------|


  PM PM PM PM PM PM PM PM PM PM          SH    
  S  S  S  S  S  S  S  S  S  S  S  S S   E.    
----------------------------------------------|
----------------------------------------------|
----------------------------------------------|
---------------------------------------<>5~---|
--7--7--7--7--7--7--7--7--7--7--7p-5----------|
-------------------------------------7--------|


  Riff B                                                          
  PM     PM PM   PM   PM PM PM     PM PM PM   PM   PM             
  S      S  S  S S  S S  S  S  E.  S  S  S  S S  S S  S S S  S S  
-----------------------------------------------------------------|
-----------------------------------------------------------------|
-----------------------------------------------------------------|
-------------------------------5----------------------7-7-7p-5---|
---------------5----7----------5------------5----7-------------7-|
--0------0--0----0----0--0--0------0--0--0----0----0-------------|


  PM PM PM   PM   PM PM PM     PM PM PM   PM   PM PM           
  S  S  S  S S  S S  S  S  E.  S  S  S  S S  S S  S  S S  S S  
--------------------------------------------------------------|
--------------------------------------------------------------|
--------------------------------------------------------------|
---------------------------5-------------------------7-7p-5---|
-----------5----7----------5------------5----7--------------7-|
--0--0--0----0----0--0--0------0--0--0----0----0--0-----------|


  PM PM PM   PM   PM PM PM     PM PM PM   PM   PM PM           
  S  S  S  S S  S S  S  S  E.  S  S  S  S S  S S  S  S S  S S  
--------------------------------------------------------------|
--------------------------------------------------------------|
--------------------------------------------------------------|
---------------------------5-------------------------7-7p-5---|
-----------5----7----------5------------5----7--------------7-|
--0--0--0----0----0--0--0------0--0--0----0----0--0-----------|


  PM PM PM   PM   PM PM PM     PM PM PM   PM                  
  S  S  S  S S  S S  S  S  E.  S  S  S  S S  S S  S S S S  S  
-------------------------------------------------------------|
-------------------------------------------------------------|
-------------------------------------------------------------|
---------------------------5-----------------7-7p-5---5------|
-----------5----7----------5------------5-----------7---7p-5-|
--0--0--0----0----0--0--0------0--0--0----0------------------|


  Verso Riff 5                                                           
  PM           PM PM   PM   PM PM PM     PM PM PM   PM   PM PM           
  S            S  S  S S  S S  S  S  E.  S  S  S  S S  S S  S  S S  S S  
------------------------------------------------------------------------|
------------------------------------------------------------------------|
------------------------------------------------------------------------|
-------------------------------------5-------------------------7-7p-5---|
---------------------5----7----------5------------5----7--------------7-|
--0------------0--0----0----0--0--0------0--0--0----0----0--0-----------|


  PM PM PM   PM   PM PM PM     PM PM PM   PM   PM PM           
  S  S  S  S S  S S  S  S  E.  S  S  S  S S  S S  S  S S  S S  
--------------------------------------------------------------|
--------------------------------------------------------------|
--------------------------------------------------------------|
---------------------------5-------------------------7-7p-5---|
-----------5----7----------5------------5----7--------------7-|
--0--0--0----0----0--0--0------0--0--0----0----0--0-----------|


  PM PM PM   PM   PM PM PM     PM PM PM   PM   PM PM           
  S  S  S  S S  S S  S  S  E.  S  S  S  S S  S S  S  S S  S S  
--------------------------------------------------------------|
--------------------------------------------------------------|
--------------------------------------------------------------|
---------------------------5-------------------------7-7p-5---|
-----------5----7----------5------------5----7--------------7-|
--0--0--0----0----0--0--0------0--0--0----0----0--0-----------|


  PM PM PM   PM   PM PM PM     PM PM PM   PM                  
  S  S  S  S S  S S  S  S  E.  S  S  S  S S  S S  S S S S  S  
-------------------------------------------------------------|
-------------------------------------------------------------|
-------------------------------------------------------------|
---------------------------5-----------------7-7p-5---5------|
-----------5----7----------5------------5-----------7---7p-5-|
--0--0--0----0----0--0--0------0--0--0----0------------------|


  PM PM PM   PM   PM PM PM     PM PM PM   PM   PM PM           
  S  S  S  S S  S S  S  S  E.  S  S  S  S S  S S  S  S S  S S  
--------------------------------------------------------------|
--------------------------------------------------------------|
--------------------------------------------------------------|
---------------------------5-------------------------7-7p-5---|
-----------5----7----------5------------5----7--------------7-|
--0--0--0----0----0--0--0------0--0--0----0----0--0-----------|


  PM PM PM   PM   PM PM PM     PM PM PM   PM   PM PM           
  S  S  S  S S  S S  S  S  E.  S  S  S  S S  S S  S  S S  S S  
--------------------------------------------------------------|
--------------------------------------------------------------|
--------------------------------------------------------------|
---------------------------5-------------------------7-7p-5---|
-----------5----7----------5------------5----7--------------7-|
--0--0--0----0----0--0--0------0--0--0----0----0--0-----------|


  PM PM PM   PM   PM PM PM     PM PM PM   PM   PM PM           
  S  S  S  S S  S S  S  S  E.  S  S  S  S S  S S  S  S S  S S  
--------------------------------------------------------------|
--------------------------------------------------------------|
--------------------------------------------------------------|
---------------------------5-------------------------7-7p-5---|
-----------5----7----------5------------5----7--------------7-|
--0--0--0----0----0--0--0------0--0--0----0----0--0-----------|


  PM PM PM   PM   PM PM PM     PM PM PM   PM                  
  S  S  S  S S  S S  S  S  E.  S  S  S  S S  S S  S S S S  S  
-------------------------------------------------------------|
-------------------------------------------------------------|
-------------------------------------------------------------|
---------------------------5-----------------7-7p-5---5------|
-----------5----7----------5------------5-----------7---7p-5-|
--0--0--0----0----0--0--0------0--0--0----0------------------|


  PM PM PM   PM   PM PM PM     PM PM PM   PM   PM             
  S  S  S  S S  S S  S  S  E.  S  S  S  S S  S S  S S S  S S  
-------------------------------------------------------------|
-------------------------------------------------------------|
-------------------------------------------------------------|
---------------------------5----------------------7-7-7p-5---|
-----------5----7----------5------------5----7-------------7-|
--0--0--0----0----0--0--0------0--0--0----0----0-------------|


  PM PM PM   PM   PM PM PM     PM PM PM   PM   PM             
  S  S  S  S S  S S  S  S  E.  S  S  S  S S  S S  S S S  S S  
-------------------------------------------------------------|
-------------------------------------------------------------|
-------------------------------------------------------------|
---------------------------5----------------------7-7-7p-5---|
-----------5----7----------5------------5----7-------------7-|
--0--0--0----0----0--0--0------0--0--0----0----0-------------|


  PM PM PM   PM   PM PM PM     PM PM PM   PM   PM PM           
  S  S  S  S S  S S  S  S  E.  S  S  S  S S  S S  S  S S  S S  
--------------------------------------------------------------|
--------------------------------------------------------------|
--------------------------------------------------------------|
---------------------------5-------------------------7-7p-5---|
-----------5----7----------5------------5----7--------------7-|
--0--0--0----0----0--0--0------0--0--0----0----0--0-----------|


  Solo 2 Adrian Smith                                                          
  PM                  PM PM   PM   PM PM PM     PM PM PM   PM                  
  S                   S  S  S S  S S  S  S  E.  S  S  S  S S  S S  S S S S  S  
------------------------------------------------------------------------------|
------------------------------------------------------------------------------|
------------------------------------------------------------------------------|
--------------------------------------------5-----------------7-7p-5---5------|
----------------------------5----7----------5------------5-----------7---7p-5-|
--0-------------------0--0----0----0--0--0------0--0--0----0------------------|


  PM PM PM   PM   PM PM PM     PM PM PM   PM   PM PM           
  S  S  S  S S  S S  S  S  E.  S  S  S  S S  S S  S  S S  S S  
--------------------------------------------------------------|
--------------------------------------------------------------|
--------------------------------------------------------------|
---------------------------5-------------------------7-7p-5---|
-----------5----7----------5------------5----7--------------7-|
--0--0--0----0----0--0--0------0--0--0----0----0--0-----------|


  PM PM PM   PM   PM PM PM     PM PM PM   PM   PM             
  S  S  S  S S  S S  S  S  E.  S  S  S  S S  S S  S S S  S S  
-------------------------------------------------------------|
-------------------------------------------------------------|
-------------------------------------------------------------|
---------------------------5----------------------7-7-7p-5---|
-----------5----7----------5------------5----7-------------7-|
--0--0--0----0----0--0--0------0--0--0----0----0-------------|


  PM PM PM   PM   PM PM PM     PM PM PM   PM   PM PM           
  S  S  S  S S  S S  S  S  E.  S  S  S  S S  S S  S  S S  S S  
--------------------------------------------------------------|
--------------------------------------------------------------|
--------------------------------------------------------------|
---------------------------5-------------------------7-7p-5---|
-----------5----7----------5------------5----7--------------7-|
--0--0--0----0----0--0--0------0--0--0----0----0--0-----------|


  PM PM PM   PM   PM PM PM     PM PM PM   PM                  
  S  S  S  S S  S S  S  S  E.  S  S  S  S S  S S  S S S S  S  
-------------------------------------------------------------|
-------------------------------------------------------------|
-------------------------------------------------------------|
---------------------------5-----------------7-7p-5---5------|
-----------5----7----------5------------5-----------7---7p-5-|
--0--0--0----0----0--0--0------0--0--0----0------------------|


  PM PM PM   PM   PM PM PM     PM PM PM   PM   PM PM           
  S  S  S  S S  S S  S  S  E.  S  S  S  S S  S S  S  S S  S S  
--------------------------------------------------------------|
--------------------------------------------------------------|
--------------------------------------------------------------|
---------------------------5-------------------------7-7p-5---|
-----------5----7----------5------------5----7--------------7-|
--0--0--0----0----0--0--0------0--0--0----0----0--0-----------|


  PM PM PM   PM   PM PM PM     PM PM PM   PM   PM             
  S  S  S  S S  S S  S  S  E.  S  S  S  S S  S S  S S S  S S  
-------------------------------------------------------------|
-------------------------------------------------------------|
-------------------------------------------------------------|
---------------------------5----------------------7-7-7p-5---|
-----------5----7----------5------------5----7-------------7-|
--0--0--0----0----0--0--0------0--0--0----0----0-------------|


  PM PM PM   PM   PM PM PM     PM PM PM   PM   PM PM           
  S  S  S  S S  S S  S  S  E.  S  S  S  S S  S S  S  S S  S S  
--------------------------------------------------------------|
--------------------------------------------------------------|
--------------------------------------------------------------|
---------------------------5-------------------------7-7p-5---|
-----------5----7----------5------------5----7--------------7-|
--0--0--0----0----0--0--0------0--0--0----0----0--0-----------|


  PM PM PM   PM   PM PM PM     PM PM PM   PM                  
  S  S  S  S S  S S  S  S  E.  S  S  S  S S  S S  S S S S  S  
-------------------------------------------------------------|
-------------------------------------------------------------|
-------------------------------------------------------------|
---------------------------5-----------------7-7p-5---5------|
-----------5----7----------5------------5-----------7---7p-5-|
--0--0--0----0----0--0--0------0--0--0----0------------------|


  PM PM PM   PM   PM PM PM     PM PM PM   PM   PM PM           
  S  S  S  S S  S S  S  S  E.  S  S  S  S S  S S  S  S S  S S  
--------------------------------------------------------------|
--------------------------------------------------------------|
--------------------------------------------------------------|
---------------------------5-------------------------7-7p-5---|
-----------5----7----------5------------5----7--------------7-|
--0--0--0----0----0--0--0------0--0--0----0----0--0-----------|


  PM PM PM   PM   PM PM PM     PM PM PM   PM   PM             
  S  S  S  S S  S S  S  S  E.  S  S  S  S S  S S  S S S  S S  
-------------------------------------------------------------|
-------------------------------------------------------------|
-------------------------------------------------------------|
---------------------------5----------------------7-7-7p-5---|
-----------5----7----------5------------5----7-------------7-|
--0--0--0----0----0--0--0------0--0--0----0----0-------------|


  PM PM PM   PM   PM PM PM     PM PM PM   PM   PM PM           
  S  S  S  S S  S S  S  S  E.  S  S  S  S S  S S  S  S S  S S  
--------------------------------------------------------------|
--------------------------------------------------------------|
--------------------------------------------------------------|
---------------------------5-------------------------7-7p-5---|
-----------5----7----------5------------5----7--------------7-|
--0--0--0----0----0--0--0------0--0--0----0----0--0-----------|


  PM PM PM   PM   PM PM PM     PM PM PM   PM                  
  S  S  S  S S  S S  S  S  E.  S  S  S  S S  S S  S S S S  S  
-------------------------------------------------------------|
-------------------------------------------------------------|
-------------------------------------------------------------|
---------------------------5-----------------7-7p-5---5------|
-----------5----7----------5------------5-----------7---7p-5-|
--0--0--0----0----0--0--0------0--0--0----0------------------|


  PM PM PM   PM   PM PM PM     PM PM PM   PM   PM PM           
  S  S  S  S S  S S  S  S  E.  S  S  S  S S  S S  S  S S  S S  
--------------------------------------------------------------|
--------------------------------------------------------------|
--------------------------------------------------------------|
---------------------------5-------------------------7-7p-5---|
-----------5----7----------5------------5----7--------------7-|
--0--0--0----0----0--0--0------0--0--0----0----0--0-----------|


  PM PM PM   PM   PM PM PM     PM PM PM   PM   PM             
  S  S  S  S S  S S  S  S  E.  S  S  S  S S  S S  S S S  S S  
-------------------------------------------------------------|
-------------------------------------------------------------|
-------------------------------------------------------------|
---------------------------5----------------------7-7-7p-5---|
-----------5----7----------5------------5----7-------------7-|
--0--0--0----0----0--0--0------0--0--0----0----0-------------|


                                  Outro                                    
  PM PM PM   PM   PM PM PM                                                 
  S  S  S  S S  S S  S  S  E.     E.    S S S E.  E.     W                 
-------------------------------|----------------------|-------------------|
-------------------------------|----------------------|-------------------|
-------------------------------|----------------------|--9----------------|
---------------------------5---|--3-----2-------------|--9----------------|
-----------5----7----------5---|----------3-2---------|--7----------------|
--0--0--0----0----0--0--0------|--------------3---2---|--0----------------|


  W                   H        Q    E  E     E.   S   
-------------------|----------------------|---------||
-------------------|----------------------|---------||
--L----------------|--L-------------7--9--|--L\-----||
--L----------------|--L-------------7--9--|--L\-----||
--L----------------|--L-------------5--7--|--L\-----||
--L----------------|--L-------------------|---------||




Voie Melody:
                             
Bruce Dickinson

          Intro                                 
     S    W                   W                 
E||----|-------------------|-------------------|
B||----|-------------------|-------------------|
G||----|-------------------|-------------------|
D||----|-------------------|-------------------|
A||----|-------------------|-------------------|
E||----|-------------------|-------------------|


  Verso Riff 1                                                  
               If   you're   fee   ling down de pressed    and  
  E            T  T T      T T   T E    E    E  S       S  E.   
---------------------------------------------5--7-------L-10---|
---------------5--L-5------L-5---L-7----8----------------------|
---------------------------------------------------------------|
---------------------------------------------------------------|
---------------------------------------------------------------|
---------------------------------------------------------------|


   lone ly                     I know a  place where we  can  
   E.   E.  E  H           E.  S S    E  E     E     E   E.   
------------------------|----------------------5-----7--10---|
--10---10---------------|------5-5----7--8-------------------|
------------------------|------------------------------------|
------------------------|------------------------------------|
------------------------|------------------------------------|
------------------------|------------------------------------|


   go                        (22)Twen   ty two A  ca cia A      ve nue         
   Q    H.              Q    T        T E  E   E  E  E   S    S E  Q.     E.   
---------------------|-----------------------------------7-|--L-8--7----------|
--10-----------------|-------5--------L-7--8---7--5--------|------------------|
---------------------|-------------------------------7-----|------------------|
---------------------|-------------------------------------|------------------|
---------------------|-------------------------------------|------------------|
---------------------|-------------------------------------|------------------|


         Verso Riff 2                                                       
                         Meet a  la  dy  that I      kno     oo   ow        
  E.     Q            S  E    S  E   E   E    E      Q.      E.   Q    E.   
------|-----------------15---15-14--14--14---14--|--15------17---19--------|
------|------------------------------------------|-------------------------|
------|------------------------------------------|-------------------------|
------|------------------------------------------|-------------------------|
------|------------------------------------------|-------------------------|
------|------------------------------------------|-------------------------|


        So if    you're loo king    for a     good    time              
  Q     S  T  T  E      E   E   E   S   S     S    S  E.  E.  H         
----------17--L-15-----14--15------14--15-|--12----L-15----------------|
-------20---------------------------------|----------------------------|
------------------------------------------|----------------------------|
------------------------------------------|----------------------------|
------------------------------------------|----------------------------|
------------------------------------------|----------------------------|


       And   you're   pre pared   to pay the    price                
  E.   S. T  S.    T  S   E.   S  S  E   S      E.   S H.            
------15----15-------15--14------14-15--15--|--12-------------------|
--------------------------------------------|-----------------------|
--------------------------------------------|-----------------------|
--------------------------------------------|-----------------------|
--------------------------------------------|-----------------------|
--------------------------------------------|-----------------------|


          Fif   teen   quid   is  all she    asks      for              
  Q    S  S. T  S.  T  S.  T  E   E   S      S    S.T  E.  E  H         
---------15----15-----14-----14--14--15--|--12----L---15---------------|
-----------------------------------------|-----------------------------|
-----------------------------------------|-----------------------------|
-----------------------------------------|-----------------------------|
-----------------------------------------|-----------------------------|
-----------------------------------------|-----------------------------|


                                           Break                 
          E    very   bo dy's got their    vice                  
  Q    S  S.T  S.  T  S  E.   S   E        E    E  H.            
---------19---19-----19-19-------------|------------------------|
---------------------------------------|--17--------------------|
-----------------------------19--19----|------------------------|
---------------------------------------|------------------------|
---------------------------------------|------------------------|
---------------------------------------|------------------------|


                      Verso Riff 1                                
                                   If   you're wai ting for  a    
  W                   Q            T  T E      E   E    E    E.   
-------------------|-------------------------------5----7---10---|
-------------------|---------------5--L-7------8-----------------|
-------------------|---------------------------------------------|
-------------------|---------------------------------------------|
-------------------|---------------------------------------------|
-------------------|---------------------------------------------|


   long time                    For the rest to do  their    piece              
   E.   E.  E  H           Q    S   E   E    E  E   E.       Q    H.            
------------------------|--------------------5--7--10----|---------------------|
--10---10---------------|-------5---7---8----------------|--10-----------------|
------------------------|--------------------------------|---------------------|
------------------------|--------------------------------|---------------------|
------------------------|--------------------------------|---------------------|
------------------------|--------------------------------|---------------------|


       You can tell her    that you   know      me                    
  Q    S   E   E    E   E  S    T   T S       S E  S H           E.   
--------------------------------------7----|--L-7-------------|------|
-------5---7---8----7------5---------------|------------------|------|
--------------------------------7---L------|------------------|------|
-------------------------------------------|------------------|------|
-------------------------------------------|------------------|------|
-------------------------------------------|------------------|------|


  Verso Riff 2                                                           
                  You might    e   ven get it     free    ee   ee.       
  Q            S  E   T     T  E   E   E   E      Q.      E.   Q    E.   
-----------------15--15-----L-14--14--14--14--|--15------17---19--------|
----------------------------------------------|-------------------------|
----------------------------------------------|-------------------------|
----------------------------------------------|-------------------------|
----------------------------------------------|-------------------------|
----------------------------------------------|-------------------------|


        So a  ny  time    you're       down the    "East    End"              
  Q     S  S  E   E   E   X      X  T  S    E      S     S  E.  E.  H         
----------17-15--14------14------L--L-14---15--|--12-----L-15----------------|
-------20--------------------------------------|-----------------------------|
-----------------------------------------------|-----------------------------|
-----------------------------------------------|-----------------------------|
-----------------------------------------------|-----------------------------|
-----------------------------------------------|-----------------------------|


          Don't   you   he si  tate to    go                  
  Q    S  S.   T  S. T  S  E   E.   S     E.  S H.            
---------15------15----14-14--14---15-|--12------------------|
--------------------------------------|----------------------|
--------------------------------------|----------------------|
--------------------------------------|----------------------|
--------------------------------------|----------------------|
--------------------------------------|----------------------|


          You   can   take   my  ho  nest    word      for it              
  Q    S  S. T  S. T  S.  T  E   E   S       S    S.T  S   E  E  H         
---------15----15----14-----14--14--15---|--12----L---15--15--------------|
-----------------------------------------|--------------------------------|
-----------------------------------------|--------------------------------|
-----------------------------------------|--------------------------------|
-----------------------------------------|--------------------------------|
-----------------------------------------|--------------------------------|


                                                         Break           
       She'll   teach   you    more than   you can       know    (Know   
  E.   S.    T  S.   T  T   T  E.   S.  T  S   T   S.    Q.      Q.      
------15-------15------15---L-14---12-----10--12---L-|-----------7------|
-----------------------------------------------------|--12-------L------|
-----------------------------------------------------|------------------|
-----------------------------------------------------|------------------|
-----------------------------------------------------|------------------|
-----------------------------------------------------|------------------|


                     Riff A                                
   Know    Know)                                           
   Q.      Q.        W.                  W.                
---7-------7------|-------------------|-------------------|
---L-------L------|-------------------|-------------------|
------------------|-------------------|-------------------|
------------------|-------------------|-------------------|
------------------|-------------------|-------------------|
------------------|-------------------|-------------------|


   Verso Riff 3                                                                 
   Char            lotte    can't    you get out from all this    mad ness      
   T            T  T     T  T     T  E   S   E   S    E   T    T  E   E    Q    
--15------------L------------------------------------------------15--17----L----
------------------17-----L-17-----L-17--17--17--17---17--17----L----------------
--------------------------------------------------------------------------------
--------------------------------------------------------------------------------
--------------------------------------------------------------------------------
--------------------------------------------------------------------------------


   Can't    you    see    it  on ly   brings    you sad  ness            
   T     T  T   T  T   T  E   S  E.   T      T  E   E.   S    Q    Q     
--15-----L----------------------------------------------15----L---------|
-----------17---L-17---L-17--17-17---17------L-17--17-------------------|
------------------------------------------------------------------------|
------------------------------------------------------------------------|
------------------------------------------------------------------------|
------------------------------------------------------------------------|


   When you en  ter tain your    men  Don't you    know the risk of ge tting di 
   E    S   E   S   E    T    T  E.   E     T   T  E    S   E    S  S  S     S  
-----------15--15--14---14----L-15----------------15---15--14---14-15-15-------|
--13---13----------------------------13----13---L---------------------------15-|
-------------------------------------------------------------------------------|
-------------------------------------------------------------------------------|
-------------------------------------------------------------------------------|
-------------------------------------------------------------------------------|


   sease                      
   H        W                 
-----------------------------|
--17-------------------------|
-----------------------------|
-----------------------------|
-----------------------------|
-----------------------------|


   Some    day    when    you're rea ching the age of    for ty            I  
   T    T  T   T  T    T  E      S   E     S   E   T  T  E   E   Q    E.   S  
--15----L---------------------------------15--19------------15---L--------15-|
----------17---L-17----L-17-----17--17------------17--L-17-------------------|
-----------------------------------------------------------------------------|
-----------------------------------------------------------------------------|
-----------------------------------------------------------------------------|
-----------------------------------------------------------------------------|


   bet    you'll    re    gret the days when    you were    la  ying            
   T   T  T      T  T  T  E    S   E    T    T  E   T    T  E   E    Q    Q     
--15---L---------------------------------------------------15--17----L---------|
---------17------L-17--L-17---17--17---17----L-17--17----L---------------------|
-------------------------------------------------------------------------------|
-------------------------------------------------------------------------------|
-------------------------------------------------------------------------------|
-------------------------------------------------------------------------------|


   No bo dy then will    want to know You    won't    have    a  ny more beau ti
   S  S  S  E    T    T  E    S  E.   T   T  T     T  T    T  S  S  S    S    S 
-----------15---15----L-14---14-15---------------------------15-15-15---14---14-
--13-13-13---------------------------13---L-13-----L-13----L--------------------
--------------------------------------------------------------------------------
--------------------------------------------------------------------------------
--------------------------------------------------------------------------------
--------------------------------------------------------------------------------


   show       a   ny   more           
   Q.     E   E   E.   Q.     S Q     
-------------15----------------------|
--17-------------15---17-------------|
-------------------------------------|
-------------------------------------|
-------------------------------------|
-------------------------------------|


  Coro                                     
          (22)Twen    ty    two,           
  Q.      S        S  Q     Q    H         
---------------------15----14-------------|
---------17--------L----------------------|
------------------------------------------|
------------------------------------------|
------------------------------------------|
------------------------------------------|


        The A    ve   nue              
  Q     S.  E.   E.   H        T Q     
----------------14--------------------|
-------15--15--------17---------------|
--------------------------------------|
--------------------------------------|
--------------------------------------|
--------------------------------------|


          That's the place where we  all   go                               
  Q.      E.     S.  Q     E.    E   Q     T     H        W                 
----------------15--14----14----15-----------|-----------------------------|
---------17-------------------------15----17-|---L-------------------------|
---------------------------------------------|-----------------------------|
---------------------------------------------|-----------------------------|
---------------------------------------------|-----------------------------|
---------------------------------------------|-----------------------------|


          You    will  find           
  Q.      S   S  Q     Q    H         
----------------15----14-------------|
---------17---L----------------------|
-------------------------------------|
-------------------------------------|
-------------------------------------|
-------------------------------------|


        it's warm in   side            The    red     light's bur     ning    
  Q     S.   E.   E.   H        E  S.  S      Q.      Q.      Q.      Q.      
-----------------14-----------------------|----------14------15------17------|
-------15---15--------17--------------15--|--17------------------------------|
------------------------------------------|----------------------------------|
------------------------------------------|----------------------------------|
------------------------------------------|----------------------------------|
------------------------------------------|----------------------------------|


   bright  to   night                  
   Q.      E.   E     H        S Q     
--19------17---22-----L---------------|
--------------------------------------|
--------------------------------------|
--------------------------------------|
--------------------------------------|
--------------------------------------|


   Verso Riff 3                                                                 
   Char            lotte    isn't    it  time you    stopped    this mad  life  
   T            T  T     T  T     T  E   E.   T   T  S       S  E.   E.   Q    E
--15------------L-----------------------------------15-------L-15---------------
------------------17-----L-17-----L-17--17---17---L-----------------15---17-----
--------------------------------------------------------------------------------
--------------------------------------------------------------------------------
--------------------------------------------------------------------------------
--------------------------------------------------------------------------------


   Don't    you    e  ver think a  bout the  bad  times     
   T     T  T   T  S  E   E.    S  E    E.   E.   Q    E.   
--15-----L------------------------15---15------------------|
-----------17---L-17-17--17----17-----------15---17--------|
-----------------------------------------------------------|
-----------------------------------------------------------|
-----------------------------------------------------------|
-----------------------------------------------------------|


   Why do you    have to live this way  Do you en joy your lay or is it the 
   S   S  T   T  E    S  E    S    E.   S  S   S  E   S    E   S  S  S  S   
----------------15---15-14---14---15-------------15--15---14--14-15-15-----|
--13--13-13---L------------------------13-13--13-----------------------15--|
---------------------------------------------------------------------------|
---------------------------------------------------------------------------|
---------------------------------------------------------------------------|
---------------------------------------------------------------------------|


   pay                        
   H        W                 
-----------------------------|
--17-------------------------|
-----------------------------|
-----------------------------|
-----------------------------|
-----------------------------|


   Some    times    when your    stro lling    down The A   ve nue          The 
   S    S  T     T  E    T    T  E    T     T  E    S   E   S  E   E  Q     S   
--15----L-------------------------------------15-------------------------------|
----------17-----L-17---15----L-17---17-----L------17--15--17-17---L-------17--|
-------------------------------------------------------------------------------|
-------------------------------------------------------------------------------|
-------------------------------------------------------------------------------|
-------------------------------------------------------------------------------|


   way    you    walk it    make men    think of     ha  ving you   
   S   S  T   T  E    T  T  E    T   T  E     E.  S  E   E.   Q     
--15---L-15---L------------------------15-----------17--15---------|
----------------17---15--L-17---17---L-------17-----15--17---17----|
-------------------------------------------------------------------|
-------------------------------------------------------------------|
-------------------------------------------------------------------|
-------------------------------------------------------------------|


   When    you're    wal king    down the    street E   very bo  dy    stops and
   S    S  T      T  E   T    T  E    T   T  E.     E   S    E   T  T  E     E  
--------------------15--15----L-14---14---L-15--------------15--15--L-14----14--
--13----L-13------L--------------------------------13--13-----------------------
--------------------------------------------------------------------------------
--------------------------------------------------------------------------------
--------------------------------------------------------------------------------
--------------------------------------------------------------------------------


   to   stare    at      you          
   E.   Q    E   Q    S  Q.     Q     
----------------15-------------------|
--15---17---------------17-----------|
-------------------------------------|
-------------------------------------|
-------------------------------------|
-------------------------------------|


  Coro                                     
          (22)Twen    ty    two,           
  Q.      S        S  Q     Q    H         
---------------------15----14-------------|
---------17--------L----------------------|
------------------------------------------|
------------------------------------------|
------------------------------------------|
------------------------------------------|


        The A    ve   nue              
  Q     S.  E.   E.   H        T Q     
-------17--19---17--------------------|
---------------------20---------------|
--------------------------------------|
--------------------------------------|
--------------------------------------|
--------------------------------------|


          That's the place where we  all   go 
  Q.      E.     S.  Q     E.    E   Q     T  
----------------15--14----14----15--17----19-|
---------17----------------------------------|
---------------------------------------------|
---------------------------------------------|
---------------------------------------------|
---------------------------------------------|


           oo      oo      oo         oo       You    will  find           
   Q.      Q.      Q.      Q.         Q    E   S   S  Q     Q    H         
---L------17------15------14------|--15--------------15----14-------------|
----------------------------------|-----------17---L----------------------|
----------------------------------|---------------------------------------|
----------------------------------|---------------------------------------|
----------------------------------|---------------------------------------|
----------------------------------|---------------------------------------|


        it's warm in   side            The    red     light's bur     ning    
  Q     S.   E.   E.   H        E  S.  S      Q.      Q.      Q.      Q.      
-------17---19---17-----------------------|----------14------15------17------|
----------------------20--------------15--|--17------------------------------|
------------------------------------------|----------------------------------|
------------------------------------------|----------------------------------|
------------------------------------------|----------------------------------|
------------------------------------------|----------------------------------|


   bright  to   night                  
   Q.      E.   E     H        S Q     
--19------17---19-----L---------------|
--------------------------------------|
--------------------------------------|
--------------------------------------|
--------------------------------------|
--------------------------------------|


   Verso Riff 4                                           
   Beat            Her...     Mis  treat    Her...        
   S            S  Q     E.   E.   S     S  Q     Q.      
-----------------------------15--------------------------|
--15------------L-17--------------15-----L-17------------|
---------------------------------------------------------|
---------------------------------------------------------|
---------------------------------------------------------|
---------------------------------------------------------|


   Do  a   ny  thing that you please          
   E   E   E   E     E    E   Q     H         
--15--15--15--15----14-----------------------|
-------------------------15--17--------------|
---------------------------------------------|
---------------------------------------------|
---------------------------------------------|
---------------------------------------------|


   Bite Her...     Ex   cite Her...        
   E    Q     E.   E.   E    Q     Q.      
------------------15----------------------|
--15---17--------------15---17------------|
------------------------------------------|
------------------------------------------|
------------------------------------------|
------------------------------------------|


   Make Her get down on  Her knee ee ees        A  
   E    E   E   E    E   E   E    S  Q    Q     S  
--19-------15--17---15--14--14---15------------19-|
-------17---------------------------17------------|
--------------------------------------------------|
--------------------------------------------------|
--------------------------------------------------|
--------------------------------------------------|


   buse    Her...     Mi   suse    Her...        
   S    S  Q     E.   E.   S    S  Q     Q.      
--17----L-19---------19---17----L-19------------|
------------------------------------------------|
------------------------------------------------|
------------------------------------------------|
------------------------------------------------|
------------------------------------------------|


   She can take all that    you've    got              Ca 
   E   E   E    E   S    S  S      S  S   Q.     Q     S  
--19--19--17---19--19----L-17------L-19---L-----------19-|
---------------------------------------------------------|
---------------------------------------------------------|
---------------------------------------------------------|
---------------------------------------------------------|
---------------------------------------------------------|


   ress    Her...     Mo   lest Her...        
   S    S  Q     E.   E.   E    Q     Q.      
--17----L-19---------19---17---19------------|
---------------------------------------------|
---------------------------------------------|
---------------------------------------------|
---------------------------------------------|
---------------------------------------------|


   She al  ways    does what you waa              ant                        
   E   E   S    S  E    E    E   H.               H        W                 
--19--19--17----L-19---19---17--19------------|-----------------------------|
----------------------------------------------|--17-------------------------|
----------------------------------------------|-----------------------------|
----------------------------------------------|-----------------------------|
----------------------------------------------|-----------------------------|
----------------------------------------------|-----------------------------|


  Verso Riff 5                                                                 
                You're    run ning a  way Don't you know what you're do  ing   
  E             T      T  S   S    S  E   E     E   E    E    E      E   Q     
-----------------------------------------------15--19---17---15-----17--19----|
---------------15------L-17--17---17-17--17-----------------------------------|
------------------------------------------------------------------------------|
------------------------------------------------------------------------------|
------------------------------------------------------------------------------|
------------------------------------------------------------------------------|


      Can't you see it 'll  lead you to  ru  in    
  E   E.    S   E   S  E.   E    E   E   E   Q     
-----15--------15--17-15---19---20--19--17--15----|
-----------17-------------------------------------|
--------------------------------------------------|
--------------------------------------------------|
--------------------------------------------------|
--------------------------------------------------|


   Char    lotte    you've    ta  ken your life And    you've    thrown it  a   
   S    S  S     S  S      S  E   E   E    E    S   S  S      S  E      E   E   
--19----L--------------------15-----------19---17---L-15------L-17-----15--17--|
----------17-----L-17------L-----17--17----------------------------------------|
-------------------------------------------------------------------------------|
-------------------------------------------------------------------------------|
-------------------------------------------------------------------------------|
-------------------------------------------------------------------------------|


   way                        
   H        W                 
--19-------------------------|
-----------------------------|
-----------------------------|
-----------------------------|
-----------------------------|
-----------------------------|


      You be  lieve that Be  cause    what    you're ear ning  
  E   E   E   E     E    E   S     S  S    S  E      E   Q     
-----19------15-------------19-----L-17----L-15-----17--19----|
---------17--------17---17------------------------------------|
--------------------------------------------------------------|
--------------------------------------------------------------|
--------------------------------------------------------------|
--------------------------------------------------------------|


      Your life's good don't    you  know that it's hur ting  
  E   E    E      E    T     T  E.   E    E    E    E   Q     
-----19----------15-----------------19---17---15---17--15----|
----------17----------17-----L-17----------------------------|
-------------------------------------------------------------|
-------------------------------------------------------------|
-------------------------------------------------------------|
-------------------------------------------------------------|


      All the peo ple that love you Don't cast them a  
  E   E   E   E   E   E    E    E   E     E.   S.   S. 
-------------15------15---17---15--15----17---15---17-|
-----17--17------17-----------------------------------|
------------------------------------------------------|
------------------------------------------------------|
------------------------------------------------------|
------------------------------------------------------|


   side                       
   H        W                 
--19-------------------------|
-----------------------------|
-----------------------------|
-----------------------------|
-----------------------------|
-----------------------------|


      All the men that are con stan tly droo ling  
  E   E   E   E   E    E   E   E    E   E    Q     
-----15------15--17---15--19--20---19--17---15----|
---------17---------------------------------------|
--------------------------------------------------|
--------------------------------------------------|
--------------------------------------------------|
--------------------------------------------------|


      It's no  life for you  Stop all that scre wing  
  E   E    E   E    S   E.   E    E   E    E    Q     
-----15-------15------------19---20--19---17---15----|
----------17-------17--17----------------------------|
-----------------------------------------------------|
-----------------------------------------------------|
-----------------------------------------------------|
-----------------------------------------------------|


        You're    pac king    your    bags...   You're co  ming    with 
  Q     S      S  E   S    S  S    S  E.     S  E      E   S    S  E    
-----------------15--15----L---------19--------17-----17--15----L-17---|
-------17------L-------------17----L-----------------------------------|
-----------------------------------------------------------------------|
-----------------------------------------------------------------------|
-----------------------------------------------------------------------|
-----------------------------------------------------------------------|


   Solo 2 Adrian Smith                                                  
   me.                                                                  
   W                  H           W.                  W.                
--19---------------------------|-------------------|-------------------|
-------------------------------|-------------------|-------------------|
-------------------------------|-------------------|-------------------|
-------------------------------|-------------------|-------------------|
-------------------------------|-------------------|-------------------|
-------------------------------|-------------------|-------------------|




Duration Legend
---------------
W - whole
H - half
Q - quarter
E - 8th
S - 16th
T - 32nd
X - 64th
. - note dotted
|-n-|  - n-tuplets


Tablature Legend
----------------
L - tied note
x - dead note
g - grace note
(n) - ghost note
> - accentuded note
NH - natural harmonic
AH - artificial harmonic
TH - tapped harmonic
SH - semi harmonic
PH - pitch harmonic
h - hammer on
p - pull off
b - bend
br - bendRelease
pb - preBend
pbr - preBendRelease
brb - bendReleaseBend
\n/ - tremolo bar dip
\n - tremolo bar dive
-/n - tremolo bar Release up
/n\ - tremolo bar inverted dip
/n - tremolo bar return
-\n - tremolo bar Release down
S - shift slide
s - legato slide
/ -  slide into from below or out of upwards
\ -  slide into from above or out of downwards
~ - vibrato
W - wide vibrato
tr - trill
TP - tremolo picking
T - tapping
S - slap
P - pop
< - fade in
^ - brush up
v - brush down
Suggest correction
Creating personal tab
Creating personal tab
You can edit any tab online and save it as your Personal.

You can edit, replace or remove any tab part or add personal notes – all changes will be seen only by you.

Personal tabs can be accessed anytime from any device, even offline.
Learn more »
comments
print report bad tab
guest
You may want to rate the tab now too:
select rating
Wanna post a correction for this tab? Suggest correction