Oops, an error
Loading. Please wait.

2 Am Tab

version 2
version 2

Whole song

Interactive

5,932 views 3 this week
1 commentread comment
1 2 3 4 5
x 4
add to favorites
launch autoscroll
font size
0
reset
how to read this tab
guitar tuner
Autoscroll
slow
fast
+/-
esc
set tempo
stop
Help us to improve Ultimate-Guitar.com Take our survey!
×
Band: Iron Maiden
Song: 2A.M.
Album: The X-Factor
Tabbed by: Aram Aroian
E-mail: vivec@walla.com

[Intro]

Guitar 1

(X4)
e|---------0----------0----------0----------|
B|-----1-0--------1-0--------1-0--------1-0-|
G|-------------------------2----------------|
D|---2----------2--------0------------2-----|
A|-0----------3---------------------0-------|
E|------------------------------------------|

Guitar 2
After second time Guitar 2 plays this

e|-5-3-------5-3-------5-3---------|
B|-----5-3-------5-3-------5-3---5-|
G|---------5---------5---------5---|
D|---------------------------------|
A|---------------------------------|
E|---------------------------------|

e|-5-3-------5-3-------5-3---------|
B|-----5-3-------5-3-------5-3-----|
G|---------5---------5---------5-5-|
D|---------------------------------|
A|---------------------------------|
E|---------------------------------|

[Vocal part1]

e|-----------------------------------------------------------------|
B|-----0---1---0-------0---1---0-------0---1---0-------0---1---0---|
G|-----------------------------------2---2-------------------------|
D|---2---2-----------2---2---------0-----------------2---2---------|
A|-0---------------3-------------------------------0---------------|
E|-----------------------------------------------------------------|

[Chorus]
                                   Ending
e|-------------------------------|-----------|
B|-------------------------------|-----------|
G|-------------------------------|-----------|
D|-2-2-2-2-2-4-4-4-4-4-----------|-2-2-2-2-2-|
A|-0-0-0-0-0-2-2-2-2-2-4-4-4-4-4-|-0-0-0-0-0-|
E|---------------------2-2-2-2-2-|-----------|

[Bridge]

Played instand the ending at the last time chorus played

e|---------------------0---------------------------0-|
B|-------0---------------------0-------------------0-|
G|-----2---2---------2-------2---2---------0-----0-0-|
D|---2-------2-----2-------2-------2-----2-----0---2-|
A|-0-----------0-0-------0-----------0-3-----1-----2-|
E|-------------------------------------------------0-|

[Vocal Part2]

e|------------------------------------|
B|------------------------------------|
G|------------------------------------|
D|-7---7-7--9---9-9--5---5-5--7---7-7-|
A|---7---7----9---9----5---5----7---7-|
E|------------------------------------|

[Chorus]
                                   Ending
e|-------------------------------|-----------|
B|-------------------------------|-----------|
G|-------------------------------|-----------|
D|-2-2-2-2-2-4-4-4-4-4-----------|-2-2-2-2-2-|
A|-0-0-0-0-0-2-2-2-2-2-4-4-4-4-4-|-0-0-0-0-0-|
E|---------------------2-2-2-2-2-|-----------|


Now at the last time play the intro again instand the ending of the chorus:

Guitar 1

End 2 is played at the last time before the solo

(X3)                                 End1     End2
e|---------0----------0----------0-|---------|-0-|
B|-----1-0--------1-0--------1-0---|-----1-0-|-0-|
G|-------------------------2-------|---------|-0-|
D|---2----------2--------0---------|---2-----|-2-|
A|-0----------3--------------------|-0-------|-2-|
E|---------------------------------|---------|-0-|

Guitar 2
After second time Guitar 2 plays this

e|-5-3-------5-3-------5-3---------|
B|-----5-3-------5-3-------5-3---5-|
G|---------5---------5---------5---|
D|---------------------------------|
A|---------------------------------|
E|---------------------------------|

e|-5-3-------5-3-------5-3---------|
B|-----5-3-------5-3-------5-3-----|
G|---------5---------5---------5-5-|
D|---------------------------------|
A|---------------------------------|
E|---------------------------------|


[Solo]

FAST!!!

(X2)
e|-8p7-8p7-8p7-8p7-------5-8-7--8p7-8p7-8p7-8p7-------5-12-10-|
B|-----------------5-5-6------------------------5-5-6---------|
G|------------------------------------------------------------|
D|------------------------------------------------------------|
A|------------------------------------------------------------|
E|------------------------------------------------------------|

e|-8p7-8p7-8p7-8p7-------5-8-7--8p7-8p7-8p7-8p7-8p7------5-12-10-|
B|-----------------5-5-6---------------------------5-5-6---------|
G|---------------------------------------------------------------|
D|---------------------------------------------------------------|
A|---------------------------------------------------------------|
E|---------------------------------------------------------------|

e|-12-12-17-15-14-12-10-12-19-17-15-14-15-14-10-|
B|----------------------------------------------|
G|----------------------------------------------|
D|----------------------------------------------|
A|----------------------------------------------|
E|----------------------------------------------|

e|-19-20-17-19-15-17-14-15-12-13-10-12-|
B|-------------------------------------|
G|-------------------------------------|
D|-------------------------------------|
A|-------------------------------------|
E|-------------------------------------|

e|-19-17-14-13-14-13-12-10-7-|
B|---------------------------|
G|---------------------------|
D|---------------------------|
A|---------------------------|
E|---------------------------|

e|12-12-14-15-17-12-12-14-15-17-|
B|------------------------------|
G|------------------------------|
D|------------------------------|
A|------------------------------|
E|------------------------------|

e|19-17-14-13-14-13-12-10-|
B|------------------------|
G|------------------------|
D|------------------------|
A|------------------------|
E|------------------------|

e|12-12-14-15-14-12-14-17-15-14-12-10-|
B|------------------------------------|
G|------------------------------------|
D|------------------------------------|
A|------------------------------------|
E|------------------------------------|

e|19-17-14-13-14-13-12-10-|
B|------------------------|
G|------------------------|
D|------------------------|
A|------------------------|
E|------------------------|

e|-8p7-8p7-8p7-8p7-------5-8-7--8p7-8p7-8p7-8p7-------5-12-10-|
B|-----------------5-5-6------------------------5-5-6---------|
G|------------------------------------------------------------|
D|------------------------------------------------------------|
A|------------------------------------------------------------|
E|------------------------------------------------------------|

e|-8p7-8p7-8p7-8p7-------5-8-7--8p7-8p7-8p7-8p7-8p7------5-12-10-|
B|-----------------5-5-6---------------------------5-5-6---------|
G|---------------------------------------------------------------|
D|---------------------------------------------------------------|
A|---------------------------------------------------------------|
E|---------------------------------------------------------------|

[Chorus]
                                   Ending
e|-------------------------------|-----------|
B|-------------------------------|-----------|
G|-------------------------------|-----------|
D|-2-2-2-2-2-4-4-4-4-4-----------|-2-2-2-2-2-|
A|-0-0-0-0-0-2-2-2-2-2-4-4-4-4-4-|-0-0-0-0-0-|
E|---------------------2-2-2-2-2-|-----------|

The outro is the same thing as the intro and being played instand
the ending last time the chorus played:

Guitar 1

(X3)                                 End 1
e|---------0----------0----------0-|---------|
B|-----1-0--------1-0--------1-0---|-----1-0-|
G|-------------------------2-------|---------|
D|---2----------2--------0---------|---2-----|
A|-0----------3--------------------|-0-------|
E|---------------------------------|---------|

And in the last time for the ending play:

e|---------0-|
B|---------0-|
G|-----2---2-|
D|---2---2---|
A|-0---------|
E|-----------|

Guitar 2
After second time Guitar 2 plays this

e|-5-3-------5-3-------5-3---------|
B|-----5-3-------5-3-------5-3---5-|
G|---------5---------5---------5---|
D|---------------------------------|
A|---------------------------------|
E|---------------------------------|

e|-5-3-------5-3-------5-3---------|
B|-----5-3-------5-3-------5-3-----|
G|---------5---------5---------5-5-|
D|---------------------------------|
A|---------------------------------|
E|---------------------------------|
Suggest correction
comments
print report bad tab
1 comment total.
0 reply
Chippie92 30 Dec 16, 2009 05:08 PM

great tab. i'm a beginner and even i think it's quite easy. except for the solo of course. but nice song to practise on acoustic guitar

guest
You may want to rate the tab now too:
select rating
Wanna post a correction for this tab? Suggest correction