Oops, an error
Loading. Please wait.

2 Minutes To Midnight Tab

version 2
version 2

Whole song

Video

190,321 views 231 this week
23 commentsread comments
1 2 3 4 5
excellent!
x 60
add to favorites
launch autoscroll
font size
0
reset
how to read this tab
guitar tuner
Autoscroll
slow
fast
+/-
esc
set tempo
stop
Help us to improve Ultimate-Guitar.com Take our survey!
×
Author
Chords
         A5                   F/A                 G5/A                  G5
 x 0 7 9 10 x          x 0 3 5 6 x          x 0 5 7 8 x          3 5 5 x x x

          F5                   E5                   D5                  D/F#
 x x 3 5 6 x          x x 2 4 5 x          x 5 7 7 x x          x 9 7 7 x x


[Intro]

  Heavy Rock Q=188
 4/4

  Gtr I
                                  ~
  E E E E E E E E   E E E  E  +E  Q  E   E E E E E E E E   E E E E +H
e|-----------------|--------------------|-----------------|--------------------|
B|-----------------|-------(7)-(7)-7--7-|-----------------|--------------------|
G|-----5-----7-----|-5------7--(7)-7--7-|-----5-----7-----|-5-----2-(2)--------|
D|-----5-----7-----|-5------7--(7)------|-----5-----7-----|-5-----2-(2)--------|
A|-0-0---0-0---0-0-|---0-0--------------|-0-0---0-0---0-0-|---0-0-0-(0)--------|
E|-----------------|--------------------|-----------------|--------------------|
|
 | Gtr II
 | W                 W                    W                 H        E  E E E
e|-----------------|--------------------|-----------------|--------------------|
B|-----------------|--------------------|-----------------|--------------------|
G|-----------------|--------------------|-----------------|-------------2-2-2--|
D|-----------------|--------------------|-----------------|-------------2-2-2--|
A|-----------------|--------------------|-----------------|-------------0-3-0--|
E|-----------------|--------------------|-----------------|--------------------|


                                   ~
   E E E E E E E E   E E E  E  +E  Q  E   E E E E E E E E   E E E E +H
e|-----------------|--------------------|-----------------|----------------|
B|-----------------|-------(7)-(7)-7--7-|-----------------|----------------|
G|-----5-----7-----|-5------7--(7)-7--7-|-----5-----7-----|-5-----2-(2)----|
D|-----5-----7-----|-5------7--(7)------|-----5-----7-----|-5-----2-(2)----|
A|-0-0---0-0---0-0-|---0-0--------------|-0-0---0-0---0-0-|---0-0-0-(0)----|
E|-----------------|--------------------|-----------------|----------------|
|
 | Q   Q   H         W                    W                 W
e|-----------------|--------------------|-----------------|----------------|
B|-----------------|--------------------|-----------------|----------------|
G|-2---------------|--------------------|-----------------|----------------|
D|-2---------------|--------------------|-----------------|----------------|
A|-0---------------|--------------------|-----------------|----------------|
E|-----------------|--------------------|-----------------|----------------|

                                   ~
   E E E E E E E E   E E E  E  +E  Q  E   E E E E E E E E   E E E E +H
e|-----------------|--------------------|-----------------|-------------------|
B|-----------------|-------(7)-(7)-7--7-|-----------------|-------------------|
G|-----5-----7-----|-5------7--(7)-7--7-|-----5-----7-----|-5-----2-(2)-------|
D|-----5-----7-----|-5------7--(7)------|-----5-----7-----|-5-----2-(2)-------|
A|-0-0---0-0---0-0-|---0-0--------------|-0-0---0-0---0-0-|---0-0-0-(0)-------|
E|-----------------|--------------------|-----------------|-------------------|
|
 | Q   Q   H         W                    W                 H        E  E E E
e|-----------------|--------------------|-----------------|-------------------|
B|-----------------|--------------------|-----------------|-------------------|
G|-2---------------|--------------------|-----------------|-------------2-2-2-|
D|-2---------------|--------------------|-----------------|-------------2-2-2-|
A|-0---------------|--------------------|-----------------|-------------0-3-0-|
E|-----------------|--------------------|-----------------|-------------------|

                                   ~
   E E E E E E E E   E E E  E  +E  Q  E
e|-----------------|--------------------|
B|-----------------|-------(7)-(7)-7--7-|
G|-----5-----7-----|-5------7--(7)-7--7-|
D|-----5-----7-----|-5------7--(7)------|
A|-0-0---0-0---0-0-|---0-0--------------|
E|-----------------|--------------------|
|
 | Q   Q   H         W
e|-----------------|--------------------|
B|-----------------|--------------------|
G|-2---------------|--------------------|
D|-2---------------|--------------------|
A|-0---------------|--------------------|
E|-----------------|--------------------|

   E E E E E E E E   E E E E +H
e|-----------------|----------------------------||
B|-----------------|----------------------------||
G|-----5-----7-----|-5-----2-(2)----------------||
D|-----5-----7-----|-5-----2-(2)----------------||
A|-0-0---0-0---0-0-|---0-0-0-(0)----------------||
E|-----------------|----------------------------||
|
 |                                      |
 | W                 E E E E  a    +E  +E  E E
e|-----------------|----------------------------||
B|-----------------|----------------------------||
G|-----------------|----------------------------||
D|-----------------|----------------------------||
A|-----------------|-----3----5b6==(5)r(5)-3----||
E|-----------------|-3h5---5-----------------5--||


[Verse Riff]

     Gtrs I, II
                                     ~
     E E E E E E E E   E E E E +E  E Q
e||------------------|------------------|
B||o-----------------|------------------|
G||------5-----7-----|-5-----7-(7)-7-7--|
D||------5-----7-----|-5-----7-(7)-7-7--|
A||o-0-0---0-0---0-0-|---0-0------------|
E||------------------|------------------|

   E E E E E E E E   E E E E +E  E E     E
e|-----------------|-------------------------||
B|-----------------|------------------------o||
G|-----5-----7-----|-5-----2-(2)-------------||
D|-----5-----7-----|-5-----2-(2)-------------||
A|-0-0---0-0---0-0-|---0-0-0-(0)-0-3b3.5p0--o||
E|-----------------|-------------------------||


[Verse]

                                     ~
     E E E E E E E E   E E E E +E  E Q
e||------------------|------------------|
B||o-----------------|------------------|
G||------5-----7-----|-5-----7-(7)-7-7--|
D||------5-----7-----|-5-----7-(7)-7-7--|
A||o-0-0---0-0---0-0-|---0-0------------|
E||------------------|------------------|

   E E E E E E E E   E E E E +E  E E     E
e|-----------------|----------------------|
B|-----------------|----------------------|
G|-----5-----7-----|-5-----2-(2)----------|
D|-----5-----7-----|-5-----2-(2)----------|
A|-0-0---0-0---0-0-|---0-0-0-(0)-0-3b3.5p0|
E|-----------------|----------------------|

                                   ~
   E E E E E E E E   E E E E +E  E Q    E E E E E E E E   E E E E +E  E E     E
e|-----------------|------------------|-----------------|-----------------------|
B|-----------------|------------------|-----------------|-----------------------|
G|-----5-----7-----|-5-----7-(7)-7-7--|-----5-----7-----|-5-----2-(2)-----------|
D|-----5-----7-----|-5-----7-(7)-7-7--|-----5-----7-----|-5-----2-(2)-----------|
A|-0-0---0-0---0-0-|---0-0------------|-0-0---0-0---0-0-|---0-0-0-(0)-0-3b3.5p0-|
E|-----------------|------------------|-----------------|-----------------------|

                                                           ~~      ~~~  ~
   E E E E E E E E   E E E E +E  E E E   E E E E E E E E   Q.   E +E  E E E
e|-----------------|-------------------|-----------------|------------------|
B|-----------------|-------------------|-----------------|------------------|
G|-----5-----7-----|-5-----7-(7)-7-7-7-|-----5-----7-----|-5----5-(5)-5-5-5-|
D|-----5-----7-----|-5-----7-(7)-7-7-7-|-----5-----7-----|-5----5-(5)-5-5-5-|
A|-0-0---0-0---0-0-|---0-0-------------|-5-5---5-5---5-5-|------------------|
E|-----------------|-------------------|-----------------|------------------|

                                                           ~~~~     ~~~~~
   E E E E E E E E   E E E E +E  E E E   E E E E E E E E   E E E E +E  E E E
e|-----------------|-------------------|-----------------|-------------------||
B|-----------------|-------------------|-----------------|-------------------||
G|-----5-----7-----|-5-----7-(7)-7-7-7-|-----5-----7-----|-5-5-5-5-(5)-5-5---||
D|-----5-----7-----|-5-----7-(7)-7-7-7-|-----5-----7-----|-5-5-5-5-(5)-5-5---||
A|-0-0---0-0---0-0-|---0-0-------------|-5-5---5-5---5-5-|-------------------||
E|-----------------|-------------------|-----------------|-------------------||


[Pre-Chorus]

   Gtr I
   Q   E E Q   E E   +H      Q   E E   Q   E E Q   E E   +H   E E E E
e|-----------------|-----------------|-----------------|------------------|
B|---------------6-|-(6)-----6-------|-3-------3-------|------------------|
G|-2---x-x-2---x-5-|-(5)-----5---x-x-|-4---x-x-4---x-5-|-(5)--5s4-4p2-----|
D|-2---x-x-2---x-7-|-(7)-----7---x-x-|-5---x-x-5---x-5-|-(5)--5s4-4p2-----|
A|-0---x-x-0---x-0-|-(0)-------------|---------------3-|-(3)--3-----------|
E|-----------------|-----------------|-----------------|------------------|
 |
 | Gtr II
 | PM----------------|       PM        PM-----------------------------|
 | E E E E E E E E    H    E E E E     E E E E E E E E    Q   E   E   Q Q
e|-----------------|-----------------|-----------------|------------------|
B|-----------------|-----------------|-----------------|------------------|
G|-----------------|-----------------|-----------------|------------------|
D|-7-7-7-7-7-7-7-7-|--7------5h7p5---|-5-5-5-5-5-5-5-7-|--7---7---7---7---|
A|-----------------|-----------------|-----------------|------------------|
E|-----------------|-----------------|-----------------|------------------|

   Q   E E Q   E E   +H      E E E E   Q  E E Q  E E   +H      H
e|-----------------|-----------------|---------------|--------------|
B|-----------------|-----------------|-------------0-|-(0)----------|
G|---------------3-|-(3)-----3s2-2p0-|-5--5-5-5--5-0-|-(0)----------|
D|-3---x-x-3---x-3-|-(3)-----3s2-2p0-|-5--5-5-5--5-5-|-(5)-----5----|
A|-3---x-x-3---x-1-|-(1)-----1-------|-3--3-3-3--3-2-|-(2)-----5----|
E|-1---x-x-1---x---|-----------------|---------------|---------3----|
 |
 | PM------------|
 | E E E E E E E E         W              W                W
e|-----------------|-----------------|---------------|--------------|
B|-----------------|-----------------|---------------|--------------|
G|-----------------|-----------------|---------------|--------------|
D|-3-3-3-3-3-3-3-3-|-----------------|---------------|--------------|
A|-----------------|-----------------|---------------|--------------|
E|-----------------|-----------------|---------------|--------------|

   Q   E E Q   E E   +W               Q   E E Q   E E   +H       E E E E
e|-----------------|----------------|-----------------|------------------|
B|---------------6-|-(6)------------|-3---x-x-3---x---|------------------|
G|-2---x-x-2---x-5-|-(5)------------|-4---x-x-4---x-5-|-(5)------5s4-4p2-|
D|-2---x-x-2---x-7-|-(7)------------|-5---x-x-5---x-5-|-(5)------5s4-4p2-|
A|-0---x-x-0---x-0-|-(0)------------|---------------3-|-(3)--------------|
E|-----------------|----------------|-----------------|------------------|
 |
 | PM----------------|        PM      PM-------------------------|
 | E E E E E E E E    H     E E E E   E E E E E E E E    Q   E E Q   Q
e|-----------------|----------------|-----------------|------------------|
B|-----------------|----------------|-----------------|------------------|
G|-----------------|----------------|-----------------|------------------|
D|-7-7-7-7-7-7-7-7-|--7-------5h7p5-|-5-5-5-5-5-5-5-7-|--7---7-7-7-------|
A|-----------------|----------------|-----------------|------------------|
E|-----------------|----------------|-----------------|------------------|

   Q   E E Q   E E   +H     E E E E   H..       E   +H     Q   E E
e|-----------------|----------------|-------------|----------------||
B|-----------------|----------------|-------------|----------------||
G|---------------3-|-(3)----3s2-2p0-|-2---------1-|-(1)----x/------||
D|-3---x-x-3---x-3-|-(3)----3s2-2p0-|-2---------2-|-(2)----x/----5-||
A|-3---x-x-3---x-1-|-(1)------------|-2---------2-|-(2)----x/----0-||
E|-1---x-x-1---x---|----------------|-0---------0-|-(0)------------||
 |
 | PM------------|
 | E E E E E E E E    W               W              W
e|-----------------|----------------|-------------|----------------||
B|-----------------|----------------|-------------|----------------||
G|-----------------|----------------|-------------|----------------||
D|-3-3-3-3-3-3-3-3-|----------------|-------------|----------------||
A|-----------------|----------------|-------------|----------------||
E|-----------------|----------------|-------------|----------------||


[Chorus]

   Gtrs I, II
   +E  E E E E E E E   +E  E E E E E E E   +H..       E   +H..       E
e|-------------------|-------------------|--------------|--------------|
B|-------------------|-------------------|--------------|--------------|
G|-------------------|-----------------5-|-(5)----------|------------7-|
D|-(5)-7-7-7-7p5---5-|-(5)-7-7-7-7p5---5-|-(5)--------5-|-(5)--------7-|
A|-(0)-0-0-0-0---7-0-|-(0)-0-0-0-0---7-3-|-(3)--------5-|-(5)--------5-|
E|-------------------|-------------------|------------3-|-(3)----------|

   +W              +H.           E  E    +H..        E    +H.           E E
e|---------------|--------------------|----------------|--------------------|
B|---------------|--------------------|----------------|--------------------|
G|-(7)-----------|-(7)-------------10-|-(10)--------12-|-(12)---------------|
D|-(7)-----------|-(7)-------------10-|-(10)--------12-|-(12)-------------5-|
A|-(5)-----------|-(5)--------------8-|--(8)--------10-|-(10)-------------0-|
E|---------------|--------------------|----------------|--------------------|
 |
 | Gtr III
 |                                                            PM--------|
 |  H    Q E E     +E  Q  E +Q.     E     W                E  E E E E E E E
e|---------------|--------------------|----------------|--------------------|
B|-----------6---|-(6)----------------|----------------|--------------------|
G|---------------|-----7--------------|----------------|--------------------|
D|---------------|--------7-(7)-------|----------------|------7-5---------5-|
A|---------------|--------------------|----------------|----------7-6-5-3-0-|
E|---------------|--------------------|----------------|--------------------|


   Gtrs I, II
   +E  E E E E E E E   +E  E E E E E E E   +H..       E   +H..       E
e|-------------------|-------------------|--------------|--------------|
B|-------------------|-------------------|--------------|--------------|
G|-------------------|-----------------5-|-(5)----------|------------7-|
D|-(5)-7-7-7-7p5---5-|-(5)-7-7-7-7p5---5-|-(5)--------5-|-(5)--------7-|
A|-(0)-0-0-0-0---7-0-|-(0)-0-0-0-0---7-3-|-(3)--------5-|-(5)--------5-|
E|-------------------|-------------------|------------3-|-(3)----------|


                                                         1.
                                             To Coda
   +W              +H.           E  E    +H..        E    +H.           E E
e|---------------|--------------------|----------------|--------------------||
B|---------------|--------------------|----------------|--------------------||
G|-(7)-----------|-(7)-------------10-|-(10)--------12-|-(12)-------------2-||
D|-(7)-----------|-(7)-------------10-|-(10)--------12-|-(12)-------------2-||
A|-(5)-----------|-(5)--------------8-|--(8)--------10-|-(10)-------------0-||
E|---------------|--------------------|----------------|--------------------||
 |
 | Gtr III
 |                                                            PM--------|
 |  H     Q  E E   +E  Q  E +Q.     E     W                E  E E E E E E E
e|---------------|--------------------|----------------|--------------------||
B|-------------6-|-(6)----------------|----------------|--------------------||
G|---------------|-----7--------------|----------------|--------------------||
D|---------------|--------7-(7)-------|----------------|------7-5---------5-||
A|---------------|--------------------|----------------|----------7-6-5-3-0-||
E|---------------|--------------------|----------------|--------------------||


[Main Riff]

   Gtrs I, II
                                    ~
   +E  E E E E E E E   E E E E E E  Q   E E E E E E E E   E E E E +Q.     E
e|-------------------|----------------|-----------------|-------------------|
B|-------------------|-------x---7--7-|-----------------|-------------------|
G|-(2)---5-----7-----|-5-----7---7--7-|-----5-----7-----|-5-----2-(2)-----2-|
D|-(2)---5-----7-----|-5-----7--------|-----5-----7-----|-5-----2-(2)-----2-|
A|-(0)-0---0-0---0-0-|---0-0----------|-0-0---0-0---0-0-|---0-0-0-(0)-----0-|
E|-------------------|----------------|-----------------|-------------------|
 |
 | Gtr III
 |  W                            W                W       E E E E  E  E E E
e|-------------------|----------------|-----------------|-------------------|
B|-------------------|----------------|-----------------|-------------------|
G|-------------------|----------------|-----------------|-5-----------------|
D|-------------------|----------------|-----------------|-5-7-5-----------2-|
A|-------------------|----------------|-----------------|-------7--6--5-3-0-|
E|-------------------|----------------|-----------------|-------------------|

                                     ~
   +E  E E E E E E E   E E E E +E  E Q
e|-------------------|------------------|
B|-------------------|-------x-----7-7--|
G|-(2)---5-----7-----|-5h7p5-7-(7)-7-7--|
D|-(2)---5-----7-----|-5h7p5-7-(7)-7-7--|
A|-(0)-0---0-0---0-0-|------------------|
E|-------------------|------------------|

   E E E E E E E E   E E E E +E  E E     E
e|-----------------|------------------------||
B|-----------------|-----------------------o||
G|-----5-----7-----|-5h7p5-2-(2)------------||
D|-----5-----7-----|-5h7p5-2-(2)------------||
A|-0-0---0-0---0-0-|-------0-(0)-0-3b3.5-0-o||
E|-----------------|------------------------||


[Guitar Solo 1]

   2.
   Gtr I
                                   \1            |
    H    H            E    +Q.    +E  +Q    +S  +S
e|----------------||---------------------------------|
B|----------------||---------------------------------|
G|-12-------------||--7b9==(7)----(7)-(7)---(7)-(7)r-|
D|-12----x\-------||---------------------------------|
A|-10----x\-------||---------------------------------|
E|----------------||---------------------------------|
 |
 | Gtr II
 |  H    E  E E E     Q.        E +Q      Q
e|----------------||---------------------------------|
B|----------x-----||-10---------6-(6)-----8----------|
G|----------------||--9---------5-(5)-----7----------|
D|------------x-x-||--7---------3-(3)-----5----------|
A|------------x-x-||--0---------0-(0)-----0----------|
E|----------------||---------------------------------|

                                             Gtr IV
                          \4.5___/            |
                                                ~
            |--3--|
    Q   E E E E   E E E   a     +H.           a Q
e|----------------------|---------------------------|
B|----------------------|---------------------------|
G|------7p5-4h5p==4s2p0-|-0-----(0)-----------0h2---|
D|----------------------|---------------------------|
A|----------------------|---------------------------|
E|----------------------|---------------------------|
|
 | +Q   Q   E   E   E E          E  E E E E E   Q
e|----------------------|---------------------------|
B|-(8)--8-------8---x-x-|--------6--6-6-5-5-5-------|
G|-(7)--7-------7---x-x-|--------5--5-5-4-4-4---7---|
D|-(5)--5-------5---x-x-|--------3--3-3-2-2-2---7---|
A|-(0)------------------|-----------------------5---|
E|----------------------|---------------------------|


                       A5 F/A  G5/A
  Gtr V
   W                   Q. E +Q Q
                       |  |  | |
                       /  /  / /
            |---3---|
   +H       Q   Q   Q   E  E  S S  S  S S S S S S S S S
e|--------------------|---------------------------------|
B|--------------5---6-|-8--6--5h6p=5----5h6p5-8p6p5---5h|
G|-(2)----------------|---------------------------------|
D|--------------------|---------------------------------|
A|--------------------|---------------------------------|
E|--------------------|---------------------------------|
 |
 |          |--3--|
 | +Q   E E E E Q Q     E  E  E E +Q    Q
e|--------------------|---------------------------------|
B|--------------------|---------6-(6)---8---------------|
G|-(7)--------4-5-7---|-9--7--5-5-(5)---7---------------|
D|-(7)--4-5-7---------|---------3-(3)---5---------------|
A|-(5)----------------|-----------------0---------------|
E|--------------------|---------------------------------|


                G5
  +Q    Q   E   E E E
   |    |       | | |
   /    /       / / /

                   |-3-|
    S  S S S E S S E E E +Q
e|----------------------------|
B|--6p=5-8p6p5----------------|
G|-------------7p5-7p5s4-(4)--|
D|----------------------------|
A|----------------------------|
E|----------------------------|
|
 | +Q    Q   E E E E
e|----------------------------|
B|-(8)---8--------------------|
G|-(7)---7--------------------|
D|-(5)---5-----5--------------|
A|-(0)---------5-x-x----------|
E|-------------3-x-x----------|


   W                                        W
   \2.5_______\3.5___/2______/
                                            ~~~~~~
   Q.        +E     +Q       E    +E       +H          Q.     E
e|-------------------------------------|------------------------|
B|-------------------------------------|------------------------|
G|-0---------(0)----(0)----<12>-(<12>)-|-(<12>)------h12\-------|
D|-------------------------------------|------------------------|
A|-------------------------------------|------------------------|
E|-------------------------------------|------------------------|
|
 | E     E E  E      E   E   Q             +Q    E E   E  E E E
e|-------------------------------------|------------------------|
B|-6-----6-6--5------5---5-------------|------------------------|
G|-5-----5-5--4------4---4---7---------|---(7)------------------|
D|-3-----3-3--2------2---2---7---------|---(7)---------5--------|
A|---------------------------5---------|---(5)---5-7------7-5-3-|
E|-------------------------------------|------------------------|


  A5       F/A             G5/A                       G5
   Q.        E  +Q         Q     +Q     Q           E  E  E  E
   |         |   |         |      |     |              |  |  |
   /         /   /         /      /     /              /  /  /

    Q.       +E   E  Q.           +Q    +S   +S   E  E  E  E  E
e|------------------15pb17=====|=(15)--(15)r(15)p12-15----12-----|
B|-15pb17r==(15)p13------------|-----------------------15----13--|
G|-----------------------------|---------------------------------|
D|-----------------------------|---------------------------------|
A|-----------------------------|---------------------------------|
E|-----------------------------|---------------------------------|
|
 |  Q.       +E   E  Q.           +Q    +S   +S   E  E  E  E  E
e|-----------------------------|---------------------------------|
B|------------------15---------|-(15)--(15)-(15)p13-15-12-13-----|
G|-16pb17r==(16)p14------------|-----------------------------14--|
D|-----------------------------|---------------------------------|
A|-----------------------------|---------------------------------|
E|-----------------------------|---------------------------------|


  F5              E5             D/F#
   Q.              E      +Q      Q
   |               |       |      |
   /               /       /      /

    E      +E    E  E      +E   E  S  E.
e|--------------15-----------------------|
B|-15b17==(15)r----15pb17r(15)p13-13-----|
G|-----------------------------------14--|
D|---------------------------------------|
A|---------------------------------------|
E|---------------------------------------|
|
 |  E      +E    E  E      +E   E  S  E.
e|---------------------------------------|
B|--------------17-----------------------|
G|-16b17==(16)r----16pb17r(16)p14-14-----|
D|-----------------------------------16--|
A|---------------------------------------|
E|---------------------------------------|


   +Q    Q   E   E   E   E    W
    |    |   |   |   |   |
    /    /   /   /   /   /

     ~~~~~            TP       TP  TP   TP   TP
    +H        Q       Q        Q   Q    Q    Q
e|--------------------7-----|--7---8---10---12--|
B|--------------------------|-------------------|
G|-(14)\--------------------|-------------------|
D|--------------------------|-------------------|
A|--------------------------|-------------------|
E|--------------------------|-------------------|
|
|            |----3----|
|  +Q    E E E E   Q   Q      Q.    E +Q    Q
|--------------------------|-------------------|
|--------------------------|-10-----6-(6)---8--|
|--------------4---5---7---|--9-----5-(5)---7--|
|-(16)\--4-5-7-------------|--7-----3-(3)---5--|
|--------------------------|--0-----0-(0)---0--|
|--------------------------|-------------------|


   TP  TP
             |---3---|
    Q   Q    E  E    E  E  E
e|-13--15---17-17---17-20-20b22==|
B|-------------------------------|
G|-------------------------------|
D|-------------------------------|
A|-------------------------------|
E|-------------------------------|
|
 |  Q   E E  E    E     E  E
e|-------------------------------|
B|--8---8---------8-----x--x-----|
G|--7---7---------7-----x--x-----|
D|--5---5---------5-----x--x-----|
A|--0----------------------------|
E|-------------------------------|

                                                                      \3
                                                 ~~~~~
    +Q.   E       +E   +S    S   E      +E      +H..            a    +E
e|-(20)r-20pb22==(20)r(20)-(17)--------------|---------------------------||
B|------------------------------20b22==(20)--|-(20)-----------(20)r-(20)-||
G|-------------------------------------------|---------------------------||
D|-------------------------------------------|---------------------------||
A|-------------------------------------------|---------------------------||
E|-------------------------------------------|---------------------------||
|
 |   E    E        E    E    E   E       Q      +Q    E E E E   E     E
e|-------------------------------------------|---------------------------||
B|---6----6--------6----5----5---5-----------|---------------------------||
G|---5----5--------5----4----4---4-------7---|--(7)----------------------||
D|---3----3--------3----2----2---2-------7---|--(7)-------5--------------||
A|---------------------------------------5---|--(5)---5-7---7---5-----3--||
E|-------------------------------------------|---------------------------||


[Guitar Solo 2]

                           ~~~~~~~~~~~
    Q.        +E   +E   E  Q     +H.          E E
e|----------------------------|-------------------|
B|-15-------------------------|-------------------|
G|-14pb16====(14)r(14)p12-14--|-(14)\-----------x-|
D|----------------------------|-------------------|
A|----------------------------|-------------------|
E|----------------------------|-------------------|
|
 |  Q.         E    Q      Q     +Q    E E Q  E E
e|----------------------------|-------------------|
B|-------------------------3--|--(3)-------3------|
G|--9----------9-----------0--|--(0)---x-x-0--x-x-|
D|--9----------9-----------0--|--(0)---x-x-0--x-x-|
A|--7----------7-----------2--|--(2)---x-x-2--x-x-|
E|----------------------------|-------------------|


                       ~~~~~~~~~
    E   E  E  E  E  E  Q     W
e|------------------------|------------------|
B|------------------------|------------------|
G|-12--11-------11--------|------------------|
D|--------14-12----12-11--|-11---------------|
A|------------------------|------------------|
E|------------------------|------------------|
|
 |  Q.        E  Q     Q    +Q   E E E E E E
e|------------------------|------------------|
B|------------------------|------------------|
G|--5---------5--------6--|-(6)--------------|
D|--5---------5--------7--|-(7)--------4-5-7-|
A|--3---------3--------4--|-(4)--4-5-7-------|
E|------------------------|------------------|


                                              ~
    |--3---|  |---3---| |-3--| |-3-|    |-3--|
    E   E  E  E  E    E E E  E E E E    E  E E Q   +Q   E E
e|-12--11-10-------------------------|------------------------|
B|-----------12-11---10-8---10-8-----|------------------------|
G|------------------------9------9-7-|------------------------|
D|-----------------------------------|--9--8-7-5---(5)\-xs9---|
A|-----------------------------------|------------------------|
E|-----------------------------------|------------------------|
|
 |  Q.             E    Q      Q       +Q      E E  Q     E E
e|-----------------------------------|------------------------|
B|-----------------------------3-----|-(3)----------3---------|
G|--9--------------9-----------0-----|-(0)-----x-x--0-----x-x-|
D|--9--------------9-----------0-----|-(0)-----x-x--0-----x-x-|
A|--7--------------7-----------2-----|-(2)-----x-x--2-----x-x-|
E|-----------------------------------|------------------------|


                                 ~~~~
              |----3-----|
   E  E E  E  E      +E  E  Q    +W
e|-------------------------10-|-(10)--------------|
B|------8-10-10pb12r(10)p8--0-|--(0)--------------|
G|-7--9-----------------------|-------------------|
D|----------------------------|-------------------|
A|----------------------------|-------------------|
E|----------------------------|-------------------|
|
 | Q.      E  Q          Q       +Q   E E E E E E
e|----------------------------|-------------------|
B|----------------------------|-------------------|
G|-5-------5-------------6----|--(6)--------------|
D|-5-------5-------------7----|--(7)--------------|
A|-3-------3-------------4----|--(4)----2-5-2-----|
E|----------------------------|-------5-------5-3-|


   PM-----|           ~~~  PM          ~~
   E  E E E S    +S  +Q    E    E  E a H.
e|---------------------------|---------------------|
B|---------------------------|---------------------|
G|----------4b6==(4)r(4)-----|-------7s9\----------|
D|---------------------------|---------------------|
A|-7--7-7-7----------------7-|--7--7---------------|
E|---------------------------|---------------------|
 |
 | Q.     E Q            Q     +Q      E  E Q  E E
e|---------------------------|---------------------|
B|-----------------------3---|-(3)----------3------|
G|-9------9--------------0---|-(0)-----x--x-0--x-x-|
D|-9------9--------------0---|-(0)-----x--x-0--x-x-|
A|-7------7--------------2---|-(2)-----x--x-2--x-x-|
E|---------------------------|---------------------|


       PM      PM  PM   ~~~
    E  E E E E E E E    H       +E   E Q
e|-------------------|---------------------|
B|-------------------|---------------------|
G|-----------6-------|--7-------(7)/-------|
D|-------5-7-----5---|---------------------|
A|-(x)-7-------7---7-|---------------------|
E|-------------------|---------------------|
 |
 |  Q.     E Q   Q     +Q   E E  E   E E E
e|-------------------|---------------------|
B|-------------------|---------------------|
G|--5------5-----6---|-(6)-----------------|
D|--5------5-----7---|-(7)-----------4-5-7-|
A|--3------3-----4---|-(4)--4-5--7---------|
E|-------------------|---------------------|


                                                                               ~~
                       |--3--|  |-------3-------|    |-----3-----|    |--3---|
    E   E      +Q      E  E  E  S      +S    E  E    E   E      +E   +E   E  E  H
e|-12-----------------12-----------------------12-|-----------------------------------|
B|-----15b17==(15)r------15p12--------------12----|-12--------------------------------|
G|-----------------------------14b16==(14)r-------|-----14b16==(14)r(14)p12----12-----|
D|------------------------------------------------|-------------------------14--------|
A|------------------------------------------------|-----------------------------------|
E|------------------------------------------------|-----------------------------------|
|
 |  Q.              E  Q        Q                   +Q           E    E   Q     E E
e|------------------------------------------------|-----------------------------------|
B|------------------------------3-----------------|-(3)-------------------3-----------|
G|--9---------------9-----------0-----------------|-(0)----------x----x---0-----x-x---|
D|--9---------------9-----------0-----------------|-(0)----------x----x---0-----x-x---|
A|--7---------------7-----------2-----------------|-(2)----------x----x---2-----x-x---|
E|------------------------------------------------|-----------------------------------|


    |-------3-------|    |---3----|      |-----3-----|      |----3-----|
    E      +E    Q  Q    Q  Q     Q      Q    Q      Q      Q     Q    Q
e|-15b17==(15)r-15-14---12-----------|-------------------------------------||
B|-------------------------15---[13]-|-[12]--------------------------------||
G|-----------------------------------|------[14]---[12]---[11]-------------||
D|-----------------------------------|---------------------------14---12---||
A|-----------------------------------|-------------------------------------||
E|-----------------------------------|-------------------------------------||
|
 |  Q.                E  Q    Q         +Q       E      E   E  E    E    E
e|-----------------------------------|-------------------------------------||
B|-----------------------------------|-------------------------------------||
G|--5-----------------5-------6------|--(6)--------------------------------||
D|--5-----------------5-------7------|--(7)--------------------------------||
A|--3-----------------3-------4------|--(4)-------------2---5--2-----------||
E|-----------------------------------|-----------5------------------5----3-||


[Interlude]

     Gtr V
                                                <
     ~                   PM
     W          +H.      Q   W          +H      H
e||-----------|------------|----------|---------------|
B||o----------|------------|----------|---------------|
G||--5--------|-(5)\-------|-7--------|-(7)/----x\----|
D||--5--------|-(5)\-------|-7--------|-(7)/----x\----|
A||o-3--------|-(3)\-----0-|-5--------|-(5)/----x\----|
E||-----------|------------|----------|---------------|

                     ~                             ~~~
   Q.   Q  +E  Q     W           Q.   E +Q   Q    +H     +H
e|-----------------|----------|-----------------|-----------------||
B|-----------------|----------|-----------------|----------------o||
G|------9--(9)-7---|-9--------|-12----7-(7)--9--|-(9)----(9)\-----||
D|------9--(9)-7---|-9--------|-12----7-(7)--9--|-(9)----(9)\-----||
A|------7--(7)-5---|-7--------|-10----5-(5)--7--|-(7)----(7)\----o||
E|-0---------------|----------|-----------------|-----------------||



                                           |-----3-----|
   +H.       E  E     W           H    Q   E      +E   E
e|----------12----||------------|------------------------|
B|-------------12-||-15---------|------------------------|
G|-(9)------------||------------|---------14pb16r(14)p12-|
D|-(9)------------||------------|------------------------|
A|-(7)------------||------------|------------------------|
E|----------------||------------|------------------------|

    ~~                          ~
    W           +H     Q  E E   W
e|-----------|----------------|------|
B|-----------|----------------|------|
G|-14--------|-(14)----7------|-7----|
D|-----------|------------9-7-|------|
A|-----------|----------------|------|
E|-----------|----------------|------|


   Gtr V
    ~~~
   +W                      +H      H        H     Q   E  E
e|-----------------------|--------------|------------12------|
B|-----------------------|--------------|---------------(x)--|
G|-(7)-------------------|-(7)\---------|--------------------|
D|-----------------------|--------------|--------------------|
A|-----------------------|--------------|--------------------|
E|-----------------------|--------------|--------------------|
 |
 | Gtr I
 |       |--3--|
 |  Q    E  E  E  Q   Q     W              +H     H
e|-----------------------|--------------|--------------------|
B|-12---10h12p10---------|--------------|--------------------|
G|---------------12p=11h=|=12-----------|-(12)---------------|
D|-----------------------|--------------|--------------------|
A|-----------------------|--------------|--------------------|
E|-----------------------|--------------|--------------------|
 |
 | Gtr II
 |       |--3--|
 |  Q    E  E  E  Q   Q     W              +H     H
e|-----------------------|--------------|--------------------|
B|--8----7h=8p=7---------|--------------|--------------------|
G|----------------9p==7--|--------------|--------------------|
D|-----------------------|--9-----------|--(9)---------------|
A|-----------------------|--------------|--------------------|
E|-----------------------|--------------|--------------------|


  Gtr V
                ~~~
                                |-----3-----|
    W           H     Q  a a a  E      +E   E
e|-----------|--------------------------------|
B|-15--------|-15\----------------------------|
G|-----------|---------------x-14pb16r(14)p12-|
D|-----------|-------------x------------------|
A|-----------|-----------x--------------------|
E|-----------|--------------------------------|

                                               ~~~~
                       |--3--|
    W           +H     Q  Q  Q    W           +H     H
e|-----------|-----------------|-----------|--------------|
B|-----------|-----------12-13-|-12--------|-(12)---------|
G|-14--------|-(14)------------|-----------|--------------|
D|-----------|-----------------|-----------|--------------|
A|-----------|-----------------|-----------|--------------|
E|-----------|-----------------|-----------|--------------|

    \1.5
    W              +W            W
e|--------------|--------------|----------|
B|--------------|--------------|----------|
G|-<7>----------|-(<7>)--------|-5--------|
D|--------------|--------------|-5--------|
A|--------------|--------------|-3--------|
E|--------------|--------------|----------|

                          ~~~
   +H     E E E E   H    +H       +W
e|----------------|-------------|---------||
B|----------------|-------------|---------||
G|-(5)------------|-------------|---------||
D|-(5)------------|-------------|---------||
A|-(3)----3-5-7-5-|-5----(5)----|-(5)\----||
E|----------------|-------------|---------||


[Main Riff]

   Gtr V
                                 ~~
   E E E E E E E E   E E E E +E  Q.     E E E E E E E E   E E E E +H
e|-----------------|------------------|-----------------|-------------------|
B|-----------------|-------x-----7----|-----------------|-------------------|
G|-----5-----7-----|-5-----7-(7)-7----|-----5-----7-----|-5-----2-(2)-------|
D|-----5-----7-----|-5-----7-(7)------|-----5-----7-----|-5-----2-(2)-------|
A|-0-0---0-0---0-0-|---0-0------------|-0-0---0-0---0-0-|---0-0-0-(0)-------|
E|-----------------|------------------|-----------------|-------------------|
|
 | Gtr II
 | W                   W                      W           E E E E  E  E E E
e|-----------------|------------------|-----------------|-------------------|
B|-----------------|------------------|-----------------|-------------------|
G|-----------------|------------------|-----------------|-5-----------------|
D|-----------------|------------------|-----------------|-5-7-5-----------2-|
A|-----------------|------------------|-----------------|-------7--6--5-3-0-|
E|-----------------|------------------|-----------------|-------------------|


                                                           D.S. al Coda
                               ~
   E E E E E E E E   E E E E Q Q     E E E E E E E E   E E E E +E  E E E
e|-----------------|---------------|-----------------|-------------------||
B|-----------------|-------7---7---|-----------------|-------------------||
G|-----5-----7-----|-5-----7---7---|-----5-----7-----|-5-----2-(2)-------||
D|-----5-----7-----|-5-----7---7---|-----5-----7-----|-5-----2-(2)-------||
A|-0-0---0-0---0-0-|---0-0---------|-0-0---0-0---0-0-|---0-0-0-(0)-0-3p0-||
E|-----------------|---------------|-----------------|-------------------||


                 [Out-Chorus]
   &
   Gtrs I, II
                              ~~~~~~~~~~~~~
    H.      Q       Q  E  E  +H        +W           Q  E E +H
e|-------------||-------------------|-------------|---------------|
B|-------------||o------------------|-------------|-6----8-(8)----|
G|-12----------||-------------------|-------------|-5----7-(7)----|
D|-12-------x--||--12----14-(14)----|-(14)--------|-3----5-(5)----|
A|-10-------x--||o-10----12-(12)----|-(12)--------|---------------|
E|-------------||-------------------|-------------|---------------|


                                               1.
                          ~~~
   +H.      Q     Q  E E +H       +W           Q  E E +H
e|--------------|---------------|------------|---------------|
B|-(8)----------|---------------|------------|---------------|
G|-(7)------x\--|-5----7-(7)----|-(7)--------|-5----2-(2)----|
D|-(5)------x\--|-5----7-(7)----|-(7)--------|-5----2-(2)----|
A|--------------|-3----5-(5)----|-(5)--------|-3----0-(0)----|
E|--------------|---------------|------------|---------------|


                  2.
   +W              Q  E E +H       +H.      Q
e|-------------||----------------|---------------||
B|------------o||----------------|---------------||
G|-(2)---------||--5----2-(2)----|-(2)------2/---||
D|-(2)---------||--5----2-(2)----|-(2)------2/---||
A|-(0)--------o||--3----0-(0)----|-(0)-----------||
E|-------------||----------------|---------------||


      E Q   E Q   E E   E  E Q  E E E E
e||-------------------|-----------------|
B||o------------------|-----------------|
G||-------------------|-----------------|
D||--12----14----14---|---14----5h7p5---|
A||o-10----12----12---|---12----------7-|
E||-------------------|-----------------|


    E Q   E Q   E E   E  E Q   E  E  E  E
e|------------------|----------------------|
B|------------------|----------------------|
G|-10----12----12---|---12----12p10-12p10--|
D|-10----12----12---|---12----12p10-12p10--|
A|--8----10----10---|---10----10-----------|
E|------------------|----------------------|


   1.
   Q  E E +Q   Q    E E Q  E E E E   E Q  E +Q   Q    E E Q  E E E E
e|----------------|----------------|----------------|-----------------||
B|----------------|----------------|----------------|----------------o||
G|-5----7-(7)--7--|---7----7p5-7p5-|-5-5--2-(2)--2--|---2----2p0-2px--||
D|-5----7-(7)--7--|---7----7p5-7p5-|-5-5--2-(2)--2--|---2----2p0-2px--||
A|-3----5-(5)--5--|---5----5-------|-3-3--0-(0)--0--|---0----0-------o||
E|----------------|----------------|----------------|-----------------||


   2.
   Q  E E +Q   Q    E E Q  E E E E   Q.   E H
e|----------------|----------------|-------------*|
B|----------------|----------------|-------------*|
G|-5----7-(7)--7--|---7----7p5-7p5-|-5----2------*|
D|-5----7-(7)--7--|---7----7p5-7p5-|-5----2------*|
A|-3----5-(5)--5--|---5----5-------|-3----0------*|
E|----------------|----------------|-------------*|



************************************

| x    Dead note
| (n)  Ghost note
| h    Hammer-on
| p    Pull-off
| b    Bend
| pb   Pre-bend
| /    Slide up
| \    Slide down
| s    Slide

************************************
Suggest correction
comments
print report bad tab
23 comments total. Showing first comments.
0 reply
Inf1n1tY. 111 wrote on November 4 2005, 04:23 am

perfect! i didnt see any mistakes

0 reply
VANHALENSMASTER 10 wrote on February 22 2006, 02:28 pm

Pretty kick ass tab dude. 5*

0 reply
Im_a_basketcase 10 wrote on March 17 2006, 09:49 am

this TAB rules!!!
wel done m8
*****

guest
You may want to rate the tab now too:
select rating
Please do not post tabs as comments. Select "correction" instead!