Oops, an error
Loading. Please wait.

2 Minutes To Midnight Tab

version 3
version 3

Whole song

Video

44,466 views 39 this week
1 commentread comment
1 2 3 4 5
x 3
add to favorites
launch autoscroll
font size
0
reset
how to read this tab
guitar tuner
backing track
0:00
0:00
×
Best way to learn
"2 Minutes To Midnight"
Autoscroll
slow
fast
+/-
esc
set tempo
stop
Author
[Intro]
[Sec 1]
e|-------------------------------------------------------|
B|-----------------------7--7----------------------------|
G|----5----7----5----7--7v-7------5-----7----5------2----|
D|----5----7----5----7------------5-----7----5------2----|play 4 times
A|-00---00---00--00-----------00----00---00----00--0-----|
E|-------------------------------------------------------|

[Sec 2]
e|----------------------------------------------------------|
B|----------------------------------------------------------|
G|----5----7----5----7--7v-7------5-----7----5------2-------|play 2 times
D|----5----7----5----7--7--7------5-----7----5------2-------|
A|-00---00---00--00-----------00----00---00----00--0--0-3p0-|
E|----------------------------------------------------------|

[Verse]

[Play Intro/Sec 2 twice]
e|-----------------------------------------------------------|
B|-----------------------------------------------------------|
G|----5----7----5----7--7--7-7-----5-----7----5--5--5-5-5----|
D|----5----7----5----7--7--7-7-----5-----7----5v-5--5-5-5----|(play 2 times)
A|-00---00---00--00-------------55---55---55-----------------|
E|-----------------------------------------------------------|

[Chorus]
e|---------------------------------------------------------------------|
B|-----------------6---6------3-------3--------------------------------|
G|-2---x-x--2----x-5---5--x-x-4--x-x--4--5----5/4--4p2----------3------|
D|-2---x-x--2----x-7---7--x-x-5--x-x--5--5----5/4--4p2--3---x-x-3------|
A|-0---x-x--0----x-0---------------------3----3/---------3---x-x-1-----|
E|--------------------------------------------------------1---x-x------|

e|------------------------------------|
B|------------------------------------|
G|-3/2--2p0--5--5-5-5---5-0-----------|
D|-3/2--2p0--5--5-5-5---5-5----5------|
A|-1---------3--3-3-3---3-2----5------|
E|------------------------------3-----|

e|---------------------------------------------------------------------|
B|-----------------6----------3-------3--------------------------------|
G|-2---x-x--2----x-5------x-x-4--x-x--4--5----5/4--4p2-------------3---|
D|-2---x-x--2----x-7------x-x-5--x-x--5--5----5/4--4p2--3---x-x-3--3---|
A|-0---x-x--0----x-0---------------------3----3/---------3---x-x-3--1--|
E|--------------------------------------------------------1---x-x-1----|

e|--------------------|
B|--------------------|
G|-3/2--2p0--2--1-----|
D|-3/2--2p0--2--2-----|
A|-----------2--2-----|
E|-----------0--0-----|

  .
e|-------------------------------------------------------|
B|-------------------------------------------------------|
G|--------------------------------5------7----10--12-----|
D|-5-7-7-7-7p5----5-7-7-7-7p5---5-5----7----10--12-------|play twice
A|-0-0-0-0-0---7--0-0-0-0-0---7-3-5----5-----8--10-------|
E|----------------------------------3--------------------|

[Fill 1]
e|------------------|
B|-6----------------|
G|---7--------------|
D|-----7------------|
A|------------------|
E|------------------|

[Fill 2]
e|-----------------|
B|-----------------|
G|-----------------|
D|-7-5---------5---|
A|-----7-6-5-3-0---|
E|-----------------|

e|-------------------------------------------------------|
B|-----------------------7--7----------------------------|
G|----5----7----5----7--7v-7------5-----7----5------2----|
D|----5----7----5----7------------5-----7----5------2----|
A|-00---00---00--00-----------00----00---00----00--0-----|
E|-------------------------------------------------------|

e|------------------------------------------------------------------|
B|---------------------------7--7-----------------------------------|
G|----5----7----5h7p5----7--7v-7------5-----7----5------2-----------|
D|----5----7----5h7p5----7--7--7------5-----7----5------2-----------|
A|-00---00---00--------------------00----00---00----00--0--0-3p0----|
E|------------------------------------------------------------------|

[Rhythm during solo 1]
e|------------------------------------------------------------------|
B|10-6-8-8-8-x-x-6-6-6-5-5-5-------------------------6-8-8----------|
G|-9-5-7-7-7-x-x-5-5-5-4-4-4--7---------4-5-7-9-7-5-5-7-7-----------|
D|-7-3-5-5-5-x-x-3-3-3-2-2-2--7---4-5-7-------------3-5-5--5--------|
A|------------------------------5----------------------------5-x-x--|
E|-----------------------------------------------------------3-x-x--|

e|--------------------------------------------------------------------------|
B|-6-6-6-5-5-5------------------------15bp13-15-12-13--------17-------------|
G|-5-5-5-4-4-4-7--------------16bp14------------------14-16b----16bp14------|
D|-3-3-3-2-2-2-7-----5------------------------------------------------------|
A|--------------5-5-7---7-5-3-----------------------------------------------|
E|--------------------------------------------------------------------------|

e|-------------------------------|
B|-----------------------6-8-----|
G|-14----------4-5-7--9-5-7------|
D|---16/-4-5-7--------7-3-5------|
A|---------------------0---------|
E|-------------------------------|

e|-------------------------------------------|
B|-8-8-8-x-x-6-6-6-5-5-5---------------------|
G|-7-7-7-x-x-5-5-5-4-4-4--7------------------|
D|-5-5-5-x-x-3-3-3-2-2-2--7----5-------------|
A|-------------------------5-5-7--7-5-3------|
E|-------------------------------------------|

[Rhythm during solo 2]
e|------------------------------------------------|
B|-----3-----3------------------------------------|
G|-9-9-0-x-x-0-x-x-5--5--6------------------------|
D|-9-9-0-x-x-0-x-x-5--5--7-------4-5-7------------|
A|-7-7-2-x-x-2-x-x-3--3--4-4-5-7------------------|
E|------------------------------------------------|

e|-----------------------------------------|
B|-----3-----3-----------------------------|
G|-9-9-0-x-x-0-x-x-5--5--6-----------------|
D|-9-9-0-x-x-0-x-x-5--5--7-----------------|
A|-7-7-2-x-x-2-x-x-3--3--4---2-5-2---------|
E|--------------------------5-------5-3----|

e|-----12-----12-------------12---------------15b-15-14-12----------|
B|--------15b----15p12----12---12--------------------------15-13----|
G|-7v------------------14b--------14b-12---12-----------------------|
D|----------------------------------------14------------------------|
A|------------------------------------------------------------------|
E|------------------------------------------------------------------|

e|-------------------------------|
B|-12----------------------------|
G|---14-12-11--------------------|
D|------------14-12--------------|
A|-------------------------------|
E|-------------------------------|

[Harmony Interlude]
e|----------------------------------------------|
B|----------------------------------------------|
G|-5------7----9--7--9---12--7--9---------------|
D|-5v-/---7----9--7--9v--12--7--9v--(2 times)---|
A|-3----0-5----7--5--7---10--5--7---------------|
E|-----------0----------------------------------|

e|-12--------------------------------------|
B|---12-15/dive----------------------------|
G|----------------14b-12-----7-----7v------|
D|----------------------14v----9-7---------|
A|-----------------------------------------|
E|-----------------------------------------|

e|-12------------------------------------------------------------|
B|---12-10h12p10-----------15------------12-13-12----------------|
G|----------------12p11h12-----14b-12-14------------7dive--------|
D|---------------------------------------------------------------|
A|---------------------------------------------------------------|
E|---------------------------------------------------------------|

e|--------------------------------|
B|--------------------------------|
G|-5------------------------------|
D|-5------------------------------|
A|-3-3-5-7-5-5v-------------------|
E|--------------------------------|

[repeat intro Sec 1 and then Sec 2]

[outro]

e|-----------------------------------------|
B|-----------6--8--------------------------|
G|-----------5--7---5-7---5-2--------------|
D|-12--14----3--5--5-7---5-2---------------|(2 times)
A|-10--12----------3-5---3-0---------------|
E|-----------------------------------------|

e|-----------------------------------------------------|
B|-----------------------------------------------------|
G|-----------------------10-12-12--12--12p10-12p10-----|
D|-12-14-14-14--5h7p5--10--12-12--12-12p10--12p10------|
A|-10-12-12-12--------7-8--10-10--10--10---------------|
E|-----------------------------------------------------|

e|-----------------------------------------------|
B|-----------------------------------------------|
G|-5-7-7-7-7p5--7p5--5-5--2---2---2--2p0--2p0----|
D|-5-7-7-7-7p5--7p5--5-5--2---2---2--2p0--2p0----|
A|-3-5-5-5-5---------3-3---0---0--0--------------|
E|-----------------------------------------------|

e|-----------------------------------------------------|
B|-----------------------------------------------------|
G|-----------------------10-12-12--12--12p10-12p10-----|
D|-12-14-14-14--5h7p5--10--12-12--12-12p10--12p10------|
A|-10-12-12-12--------7-8--10-10--10--10---------------|
E|-----------------------------------------------------|

e|--------------------------------|
B|--------------------------------|
G|-5--7--7---7--7p5--7p5---5-2----|
D|-5--7--7---7--7p5--7p5---5-2----|
A|-3--5--5---5-------------3-0----|
E|--------------------------------|
Suggest correction
Give kudos to tab author, rate the tab!
1 2 3 4 5
comments
print report bad tab
1 comment total.
0 reply
WildChild1234 41 Nov 17, 2008 05:51 AM

Perfect tabs 5/5

guest
You may want to rate the tab now too:
select rating
Wanna post a correction for this tab? Suggest correction