Oops, an error
Loading. Please wait.

Aces High Bass Tab

version 1
version 1

Whole song

  • Notes are much more accurate, better formatted.
84,034 views 129 this week
12 commentsread comments
1 2 3 4 5
excellent!
x 26
add to favorites
launch autoscroll
font size
0
reset
guitar tuner
Autoscroll
slow
fast
+/-
esc
set tempo
stop
Help us to improve Ultimate-Guitar.com Take our survey!
×
G|11-----------7-----------11-----------7-----------11-----------7--------|--------------|
D|11-----------7-----------11-----------7-----------11-----------7--------|.-7--7-7-7-7-7|
A|-9---9-9-9---5---7-7-7----9---9-9-9---5---5-5-5----9---9-9-9---5--7-7-7-|.-------------|
E|------------------------------------------------------------------------|--------------|
                                                               Fast

G|-----------------------------------------|-----------------------------------------|
D|-7--7--7--3--3-3-3-3-3--5--5-5-5-5-5-5--.|.----------------------------------------|
A|----------------------------------------.|.---5-5-7-7-7-7-5-5-7-7-7-7-5-5-7-7-7-7--|
E|-----------------------------------------|-----------------------------------------|
                            Play 4 times    Lyrics enter
                                                           

G|-------------|---------------------------------------------4-------|-------------------|
D|-------4----.|.--5-5-7-7-7-7-5-5-7-7-7-7-5-5-7-7-7-7-5-5-5----5---.|.------------------|
A|-5-5-5---5--.|.---------------------------------------------------.|.-5--7-7-7-7--10--7|
E|-------------|-----------------------------------------------------|-------------------|
Play 4 times                                Play 4 times


G|--------------------7-6-4-2-5-4-2-0------------------------------------------|
D|--------7--------------------------------------------------------7-----------|
A|-7-7-7-----7-7-7-7--------------------5--7-7-7-7---10--7-7-7-7------7-7-7-7--|
E|-----------------------------------------------------------------------------|

G|--5-4-2-0-2----|----------------------------------------------------|--------|
D|--------------.|.--------------------------------------------------.|---5--5-|
A|--------------.|.--7--7-7-7-7--7-7-7-7-7-5-3--3-3-3-3--5--5-5-5-5--.|--------|
E|---------------|----------------------------------------------------|--------|
                                                        Play 4 times

G|-----------------------------------------------------------------------------|
D|-5-5-5--5-5-5-5-5-3--1-1-1-1--3--3-3-3-3--5--5-5-5-5--5-5-5-5-5-3--1-1-1-1-1-|
A|-----------------------------------------------------------------------------|
E|-----------------------------------------------------------------------------|

G|-----------------------------------------------------------------------------|
D|-3--3-7-3--5--5-5-5-5--5-5-5-5-5-3--1-1-1-1-1--3-3-3-3-3--5--5-5-5-5--5-5-5-5|
A|-----------------------------------------------------------------------------|
E|-----------------------------------------------------------------------------|

G|---------------------------------.-----------------7-7-------.---------------|
D|-5-3--1-1-1-1-1--3-3-8-3---7-10-10-7-7-7-10-9-7--------7-10-10-7-7-7-10-9-7--|
A|------------------------------------------------10---------------------------|
E|-----------------------------------------------------------------------------|

G|----------------.------------------7-7--------.-----------------.----------.-|
D|----7-7---7-10-10-7-7-7-10-9-7----------7-10-10-7-7-7-10-9-7----7----7-10-10-|
A|-10----------------------------10----------------------------10--------------|
E|-----------------------------------------------------------------------------|

G|-----------------7-7--------.-----------------------------.------------------|
D|-7-7-7-10-9-7---------7-10-10-7-7-7-10-9-7----7-7---7-10-10-7-7-7-10-9-7----7|
A|--------------10---------------------------10----------------------------10--|
E|-----------------------------------------------------------------------------|

G|-----------.------------------.----------------------------------------------|
D|-7---7-10-10-7-7-7-10-9-7-----7-----7--7-7-7-7--7-7-7-7-7-5-3--3-3-3-3--5--5-|
A|---------------------------10------------------------------------------------|
E|-----------------------------------------------------------------------------|
                                  Guitar solo

G|-----------------------------------------------------------------------------|
D|-5-5-5--7--7-7-7-7--7-7-7-7-5-------------------------7--7-7-7-7--7-7-7-7-7-5|
A|------------------------------3--3-3-3-3--5--5-5-5-5-------------------------|
E|-----------------------------------------------------------------------------|

G|-----------------------------------------------------------------------------|
D|-3--3-3-3-3--5--5-5-5-5--7--7-7-7-7--7-7-7-7-7-5--------------------5----9--9|
A|-------------------------------------------------3--3-3-3-3--5--5-5---5------|
E|-----------------------------------------------------------------------------|

G|-----------------------------------------------------------------------------|
D|-9-9-9--9-9-9-9-9-7-5--5-5-5-5--7-7-7-7-7--9--9-9-9-9--9-9-9-9-9-7-----------|
A|-------------------------------------------------------------------5--5-5-5-5|
E|-----------------------------------------------------------------------------|

G|-----------------------------------------------------------------------------|
D|------------9--9-9-9-9--9-9-9-9-9-7-5--5-5-5-5--7--7-7-7-7--9--9-9-9-9--9-9-9|
A|-7-7-7-7-7-------------------------------------------------------------------|
E|-----------------------------------------------------------------------------|

G|--------------------------------------.-------------------7-7--------.-------|
D|-9-9-7------------------7-------7-10-10-7-7-7-10-9-7-----------7-10-10-7-7-7-|
A|--------5--5-5-5-5--7-7---7-7-------------------------10---------------------|
E|-----------------------------------------------------------------------------|

G|------------------------.------------------7-7---------.-----------------.---|
D|-10-9-7-----7-7---7-10-10-7-7-7-10-9-7-----------7-10-10-7-7-7-10-9-7----7---|
A|---------10-----------------------------10----------------------------10-----|
E|-----------------------------------------------------------------------------|

G|-------.------------------7-7---------.------------------------------.-------|
D|-7-10-10-7-7-7-10-9-7-----------7-10-10-7-7-7-10-9-7-----7-7---7-10-10-7-7-7-|
A|-----------------------10-----------------------------10---------------------|
E|-----------------------------------------------------------------------------|

G|--------------7--7--------------.--------------------------.--|------------------------------------------|
D|-10-9-7---------------7-10-----10-7-7-7----10-9-7----------7--|.-----------------------------------------|
A|-----------10--------------------------------------10---------|.---5-5-7-----7-7-7-5--5-7-7-7-7-5-5--7-7-|
E|--------------------------------------------------------------|------------------------------------------|

G|-------------------|-------------------------------------------------------4----|------------------------|
D|------------4-----.|.--5---5-7-7-7-7-5--5-7-7-7-7-5---5-7-7-7-7-5-5------5---5-.|------------------------|
A|-7-7-5--5-5---5-5-.|.----------------------------------------------------------.|-5-7----7-7-7-10--7---7-|
E|-------------------|------------------------------------------------------------|------------------------|
Play 4 times                                 Play 4 times


G|---------------7-6-4-2-5-4-2-0---------------------------------5-4-2-0-2-----|
D|-----7-----------------------------------------------7-----------------------|
A|-7-7---7-7-7-7------------------5-7-7-7-7-10-7-7-7-7---7-7-7-7------------5-7|
E|-----------------------------------------------------------------------------|

G|----------------------------7-6-4-2-5-4-2-0----------------------------------|
D|------------------7------------------------------------------------7---------|
A|-7-7-7-10-7-7-7-7---7-7-7-7-------------------5-7-7-7-7-10-7-7-7-7---7-7-7-7-|
E|-----------------------------------------------------------------------------|

G|-5-4-2-0-2--|----------------------------------------------------|-----------|
D|------------|.--------------------------------------------------.|--5--5-5-5-|
A|------------|.--7--7-7-7-7--7-7-7-7-7-5-3--3-3-3-3--5--5-5-5-5--.|-----------|
E|------------|----------------------------------------------------|-----------|
                                                 Play 4 times

G|-----------------------------------------------------------------------------|
D|-5--5-5-5-5-5-3--1-1-1-1-1--3--3-3-3-3--5--5-5-5-5--5-5-5-5-5-3--1-1-1-1-1--3|
A|-----------------------------------------------------------------------------|
E|-----------------------------------------------------------------------------|

G|-------------------------------------------------------------------------------|
D|-3-3-3-7-3--5--5-5-5-5--5-5-5-5-5-3--1-1-1-1-1--3--3-3-3-3--5--5-5-5-5--5-5-5-5|
A|-------------------------------------------------------------------------------|
E|-------------------------------------------------------------------------------|

G|------------------------------------------.-.-.--------------------------------|
D|-5-3--1-1-1-1-1--3-3-3-8-3---7--7-7-7-7-7-7-7-7--3--3-3-3-3-3--5--5-5-5-5-5--7-|
A|-------------------------------------------------------------------------------|
E|-------------------------------------------------------------------------------|

G|-----------.-.-.-------------------------------------------.-.-.-------------|
D|-7-7-7-7-7-7-7-7--3--3-3-3-3-3--5--5-5-5-5-5--7--7-7-7-7-7-7-7-7--3--3-3-3-3-|
A|-----------------------------------------------------------------------------|
E|-----------------------------------------------------------------------------|

G|-----------------------------------------------------------------------------|
D|-3--5--5-5-5-5-5--7--7-7-7-7-7-7-7-7--3------5----/7-------------------------|
A|------------------------------------------------------0-0-0-0-0-0-0-0-0-0-0-0|
E|-----------------------------------------------------------------------------|
                  Ritard.                 

G|-------h---------------------------------------------------------------------|
D|------5-7-7-7-7-7-7-7-7-7-5---7-5---5-7-7-7-7-7-7-7-7-7--5-5-5---------------|
A|-0-0------------------------7-----7----------------------------7-7--5-5------|
E|-------------------------------------------------------------------------7-7-|

G|------------------------------||
D|--------------------------7\--||
A|-----------0-0-0----------0---||
E|-5-5--3--5--------------------||

************************************

| >   Accent                       
| /   Slide up
| .   Staccatto                   
| \   Slide down
| h   Hammer-on/ pull off         
| :   Repeat
| †   Harmonic                    
| ~   slight bend 

************************************
Suggest correction new What's this?
You can suggest a correction to this tab. Community and Mods will review your correction and vote to approve or reject it.
comments
print report bad tab
12 comments total. Showing first comments.
+2 reply
ffbassplayer 198 wrote on July 29 2005, 12:00 am

i only have one problem with this tab at the very end the outro is tremolo picked other than that its great i gave it a five

+6 reply
seekdestroy83 86 wrote on December 28 2005, 06:54 am

would it kill you to separate the sections of the song? other than that great job!

0 reply
METSOAD 2,689 wrote on March 17 2006, 11:38 am

great job, run straight through with this tab

guest
You may want to rate the tab now too:
select rating
Please do not post tabs as comments. Select "correction" instead!