Oops, an error
Loading. Please wait.

Aces High intro tab

1,279 views 6 this week
1 commentread comment
1 2 3 4 5
2 more votes to show rating
add to favorites
×
Save as Personal and add changes to this tab that will be seen only by you. Learn more ›
×
You can save this tab as Personal to edit and correct it or add notes. All changes will be seen only by you. Learn more »
launch autoscroll
font size
0
reset
how to read this tab
guitar tuner
backing track
0:00
0:00
edit
Autoscroll
slow
fast
+/-
esc
set tempo
stop
Author
Artist: Iron Maiden
Album: Powerslave
Year: 1984
Tabbed by: Meladiator


Tuning: Standard E (E,A,D,G,B,e)

Intro: (x4)                              | 1. 2. 3.         |
e|---------------------------------------|------------------|
B|---------------------------------------|------------------|
G|---------------------------------------|------------------|
D|------4-6-4-7--6--(x2)-----------7--6--|----4-6-4-7--6----|
A|----7---------------------4-5-7-5------|--7---------------|
E|---------------------------------------|------------------|

 |4.                  |
e|--------------------|
B|--------------------|
G|--------------------|
D|------4-6-4---------|
A|----7-------7-------|
E|--------------------|

Interlude riff: (x4)
e|---------------------------------------------------------------------------|
B|------------------------5-5-------------------------3-3--5p-3--------------|
G|-----5p---4--5p-4-5p-4-----5---5p---4--5p-4-5p-4--4-----------5p-4---------|
D|---------------------------------------------------------------------------|
A|---------------------------------------------------------------------------|
E|---------------------------------------------------------------------------|


************************************

| /   slide up
| \   slide down
| h   hammer-on
| p   pull-off
| ~   vibrato
| +   harmonic
| x   Mute note
| b   Bend
| pb  Pre-bend
| br  Bend release
| pbr Pre-bend release
| brb Bend release bend

************************************

            
            
Suggest correction
Creating personal tab
Creating personal tab
You can edit any tab online and save it as your Personal.

You can edit, replace or remove any tab part or add personal notes – all changes will be seen only by you.

Personal tabs can be accessed anytime from any device, even offline.
Learn more »
Give kudos to tab author, rate the tab!
1 2 3 4 5
comments
print report bad tab
1 comment total.
0 reply
flagakuba 17 Jan 29, 2016 10:52 AM

Another "Aces High" tab?...

guest
You may want to rate the tab now too:
select rating
Wanna post a correction for this tab? Suggest correction