Oops, an error
Loading. Please wait.

Back In The Village Bass Tab

version 2
version 2

Whole song

231 views 6 this week
no commentswrite comment
1 2 3 4 5
please rate
add to favorites
launch autoscroll
font size
0
reset
guitar tuner
Autoscroll
slow
fast
+/-
esc
set tempo
stop
Help us to improve Ultimate-Guitar.com Take our survey!
×
Author
Difficulty
intermediate
Intro:

|----------------------------|------|-----------|---------------|-----------|
|----------------------------|-drum-|*-7-7-7-7-*|-5h7-7-7-7-5-0-|*-7-7-7-7-*|
|-0----0-0--r--0--r--0-0--r--|-roll-|*---------*|---------------|*---------*|
|----------------------------|------|-----------|---------------|-----------|
                                       Play 6x                     Play 6x


                 Verse 1:
|-7-7-7-7-7-5-0-|-----------------------------------------------------------|
|---------------|-7-7-7-7-7-7-7-7-7-7-7-7-7-5-7-7-7-7-7-7-7-7-7-7-7-7-7-7-7-|
|---------------|-----------------------------------------------------------|
|---------------|-----------------------------------------------------------|


|---5-----5-7--------------------------------|
|-3---3-5-----7--7-7-7-7-7-7-7-5h7-7-7-7-5-0-|
|--------------------------------------------|
|--------------------------------------------|


|-----------------------------------------------------------|
|-7-7-7-7-7-7-7-7-7-7-7-7-7-5-7-7-7-7-7-7-7-7-7-7-7-7-7-7-7-|
|-----------------------------------------------------------|
|-----------------------------------------------------------|

|---5-----4-5-7--------------------------------|
|-3---3-5-------7--7-7-7-7-7-7-7-5h7-7-7-7-5-0-|
|----------------------------------------------|
|----------------------------------------------|

|----------------------------------------------3---------------------4-------5-----|
|*-----------5-5-5-5-5-5-7-7-------------------------------------------------------|
|*-5-5-5-5-5-----------------1-1-1-1-1-1-1-1-1---1-2-2-2-2-2-2-2-2-2---2---3-3---3-|
|----------------------------------------------------------------------------------|


             2~~~~~~~~~~~~~~~~~~~~~~~~~~~~~~~~~~~~~~~~
-----6------|-----------------------------------------|
-----------*|-----------7-7-7---------------7-7-7-----|
-4-4---4---*|-------5-7-------7-5-------5-7-------7-5-|
------------|-5-5-5---------------5-5-5---------------|


Chorus:

|-------------------------7-7-7-7-7-7-7-7-7-7-7-7------------------------------|
|---------------------5-7-------------------------7-5-----------5-5-5-5-5-5-7\-|
|-5-5-5-5-5-5-5-5-5-5---------------------------------5-5-5-5-5----------------|
|------------------------------------------------------------------------------|


---------------------|
---------------------|
-3-3-3-3-3---------3-|
-----------3-3-3-5---|


|-------------------------7-7-7-7-7-7-7-7-7-7-7-7------------------------------|
|---------------------5-7-------------------------7-5-----------5-5-5-5-5-5-7\-|
|-5-5-5-5-5-5-5-5-5-5---------------------------------5-5-5-5-5----------------|
|------------------------------------------------------------------------------|


---------------------|
---------------------|
-3-3-3-3-3-----------|
-----------3-3-3-3-3-|

Between chorus and verse 2:

|-----------|---------------|-----------|-7-7-7-7-7-5-0-|
|*-7-7-7-7-*|-5h7-7-7-7-5-0-|*-7-7-7-7-*|---------------|
|*---------*|---------------|*---------*|---------------|
|-----------|---------------|-----------|---------------|
 Play 2x                     Play 2x

|-----------|---------------|-----------|---------------|
|*-7-7-7-7-*|-5h7-7-7-7-5-0-|*-7-7-7-7-*|-7-7-7-7-7-7-5-|
|*---------*|---------------|*---------*|---------------|
|-----------|---------------|-----------|---------------|
 Play 2x                     Play 2x

Verse 2:
|-----------------------------------------------------------|
|-7-7-7-7-7-7-7-7-7-7-7-7-7-5-7-7-7-7-7-7-7-7-7-7-7-7-7-7-7-|
|-----------------------------------------------------------|
|-----------------------------------------------------------|


|---5-----4-5-7--------------------------------|
|-3---3-5-------7--7-7-7-7-7-7-7-5h7-7-7-7-5-0-|
|----------------------------------------------|
|----------------------------------------------|


|-----------------------------------------------------------|
|-7-7-7-7-7-7-7-7-7-7-7-7-7-5-7-7-7-7-7-7-7-7-7-7-7-7-7-7-7-|
|-----------------------------------------------------------|
|-----------------------------------------------------------|


|---5-----4-5-7--------------------------------|
|-3---3-5-------7--7-7-7-7-7-7-7-5h7-7-7-7-5-0-|
|----------------------------------------------|
|----------------------------------------------|

                                                                          1~~~~~~~~
|----------------------------------------------3---------------------4-------5-----|
|*-----------5-5-5-5-5-5-7-7-------------------------------------------------------|
|*-5-5-5-5-5-----------------1-1-1-1-1-1-1-1-1---1-2-2-2-2-2-2-2-2-2---2---3-3---3-|
|----------------------------------------------------------------------------------|

             2~~~~~~~~~~~~~~~~~~~~~~~~~~~~~~~~~~~~~~~~
-----6------|-----------------------------------------|
-----------*|-----------7-7-7---------------7-7-7-----|
-4-4---4---*|-------5-7-------7-5-------5-7-------7-5-|
------------|-5-5-5---------------5-5-5---------------|


Chorus:

|-------------------------7-7-7-7-7-7-7-7-7-7-7-7------------------------------|
|---------------------5-7-------------------------7-5-----------5-5-5-5-5-5-7\-|
|-5-5-5-5-5-5-5-5-5-5---------------------------------5-5-5-5-5----------------|
|------------------------------------------------------------------------------|


---------------------|
---------------------|
-3-3-3-3-3---------3-|
-----------3-3-3-5---|

|-------------------------7-7-7-7-7-7-7-7-7-7-7-7------------------------------|
|---------------------5-7-------------------------7-5-----------5-5-5-5-5-5-7\-|
|-5-5-5-5-5-5-5-5-5-5---------------------------------5-5-5-5-5----------------|
|------------------------------------------------------------------------------|


---------------------|
---------------------|
-3-3-3-3-3-----------|
-----------3-3-3-3-3-|


Bass goes along with the drums:

|-------------------------------|------|
|-------------------------------|-drum-|
|-0-0--r--0-0--r--0--r--0-0--r--|-roll-|
|-------------------------------|------|

Guitar solo:

|----------------------------------------------3---------------------4-------5-----|
|*-----------5-5-5-5-5-5-7-7-------------------------------------------------------|
|*-5-5-5-5-5-----------------1-1-1-1-1-1-1-1-1---1-2-2-2-2-2-2-2-2-2---2---3-3---3-|
|----------------------------------------------------------------------------------|


-----6------|
-----------*|
-4-4---4---*|
------------|
 Play 2x

|-----------|---------------|-----------|-7-7-7-7-7-5-0-|
|*-7-7-7-7-*|-5h7-7-7-7-5-0-|*-7-7-7-7-*|---------------|
|*---------*|---------------|*---------*|---------------|
|-----------|---------------|-----------|---------------|
 Play 2x                     Play 2x

|-----------|---------------|-----------|---------------|
|*-7-7-7-7-*|-5h7-7-7-7-5-0-|*-7-7-7-7-*|-7-7-7-7-7-7-5-|
|*---------*|---------------|*---------*|---------------|
|-----------|---------------|-----------|---------------|
 Play 2x                     Play 2x

|-----------|---------------|-----------|-7-7-7-7-7-5-0-|
|*-7-7-7-7-*|-5h7-7-7-7-5-0-|*-7-7-7-7-*|---------------|
|*---------*|---------------|*---------*|---------------|
|-----------|---------------|-----------|---------------|
 Play 2x                     Play 2x

|-----------|---------------|-----------|---------------|
|*-7-7-7-7-*|-5h7-7-7-7-5-0-|*-7-7-7-7-*|-7-7-7-7-7-7-5-|
|*---------*|---------------|*---------*|---------------|
|-----------|---------------|-----------|---------------|
 Play 2x                     Play 2x

|----------------------------------------------3---------------------4-------5-----|
|*-----------5-5-5-5-5-5-7-7-------------------------------------------------------|
|*-5-5-5-5-5-----------------1-1-1-1-1-1-1-1-1---1-2-2-2-2-2-2-2-2-2---2---3-3---3-|
|----------------------------------------------------------------------------------|


-----6------|
-----------*|
-4-4---4---*|
------------|
 Play 2x


|-----------|---------------|-----------|-7-7-7-7-7-5-0-|
|*-7-7-7-7-*|-5h7-7-7-7-5-0-|*-7-7-7-7-*|---------------|
|*---------*|---------------|*---------*|---------------|
|-----------|---------------|-----------|---------------|
 Play 2x                     Play 2x


|-----------|-5-5-5-5-5-4---|-----------|---------------|
|*-7-7-7-7-*|-------------5-|*-7-7-7-7-*|-7-7-7-7-7-7-5-|
|*---------*|---------------|*---------*|---------------|
|-----------|---------------|-----------|---------------|
 Play 2x                     Play 2x


|-----------|---------------|-----------|-7-7-7-7-7-5-0-|
|*-7-7-7-7-*|-5h7-7-7-7-5-0-|*-7-7-7-7-*|---------------|
|*---------*|---------------|*---------*|---------------|
|-----------|---------------|-----------|---------------|
 Play 2x                     Play 2x

|-----------|---------------|-----------|---------------|
|*-7-7-7-7-*|-5h7-7-7-7-5-0-|*-7-7-7-7-*|-7-7-7-7-7-7-5-|
|*---------*|---------------|*---------*|---------------|
|-----------|---------------|-----------|---------------|
 Play 2x                     Play 2x


|---------------------------------------------------|
|-----------8-8-8-8-10-8-------------8-8-8-8-10-8---|
|-8-8-8-8-8--------------8-8-8-8-8-8--------------8-|
|---------------------------------------------------|


|------------------------------------------------9----------------------------|
|----------------9-9-9-9-10-10-10-10-12-12-12-12---12-12-12-12-10-10-10-10-9\-|
|-10-10-10-10-10--------------------------------------------------------------|
|-----------------------------------------------------------------------------|


|-----------|---------------|-----------|-7-7-7-7-7-5-0-|
|*-7-7-7-7-*|-5h7-7-7-7-5-0-|*-7-7-7-7-*|---------------|
|*---------*|---------------|*---------*|---------------|
|-----------|---------------|-----------|---------------|
 Play 2x                     Play 2x


|-----------|---------------|-----------|-5-5-5-5-5-4---|
|*-7-7-7-7-*|-7-7-7-7-7-7-5-|*-7-7-7-7-*|-------------5-|
|*---------*|---------------|*---------*|---------------|
|-----------|---------------|-----------|---------------|
 Play 2x                     Play 2x


Verse 3:
|-----------------------------------------------------------|
|-7-7-7-7-7-7-7-7-7-7-7-7-7-5-7-7-7-7-7-7-7-7-7-7-7-7-7-7-7-|
|-----------------------------------------------------------|
|-----------------------------------------------------------|


|---5-----4-5-7--------------------------------|
|-3---3-5-------7--7-7-7-7-7-7-7-5h7-7-7-7-5-0-|
|----------------------------------------------|
|----------------------------------------------|

|-----------------------------------------------------------|
|-7-7-7-7-7-7-7-7-7-7-7-7-7-5-7-7-7-7-7-7-7-7-7-7-7-7-7-7-7-|
|-----------------------------------------------------------|
|-----------------------------------------------------------|


|---5-----4-5-7--------------------------------|
|-3---3-5-------7--7-7-7-7-7-7-7-5h7-7-7-7-5-0-|
|----------------------------------------------|
|----------------------------------------------|


                                                                          1~~~~~~~~
|----------------------------------------------3---------------------4-------5-----|
|*-----------5-5-5-5-5-5-7-7-------------------------------------------------------|
|*-5-5-5-5-5-----------------1-1-1-1-1-1-1-1-1---1-2-2-2-2-2-2-2-2-2---2---3-3---3-|
|----------------------------------------------------------------------------------|

             2~~~~~~~~~~~~~~~~~~~~~~~~~~~~~~~~~~~~~~~~
-----6------|-----------------------------------------|
-----------*|-----------7-7-7---------------7-7-7-----|
-4-4---4---*|-------5-7-------7-5-------5-7-------7-5-|
------------|-5-5-5---------------5-5-5---------------|


Chorus:

|-------------------------7-7-7-7-7-7-7-7-7-7-7-7------------------------------|
|---------------------5-7-------------------------7-5-----------5-5-5-5-5-5-7\-|
|-5-5-5-5-5-5-5-5-5-5---------------------------------5-5-5-5-5----------------|
|------------------------------------------------------------------------------|


---------------------|
---------------------|
-3-3-3-3-3---------3-|
-----------3-3-3-5---|


|-------------------------7-7-7-7-7-7-7-7-7-7-7-7------------------------------|
|---------------------5-7-------------------------7-5-----------5-5-5-5-5-5-7\-|
|-5-5-5-5-5-5-5-5-5-5---------------------------------5-5-5-5-5----------------|
|------------------------------------------------------------------------------|


---------------------|
---------------------|
-3-3-3-3-3-----------|
-----------3-3-3-3-3-|


Bridge:

|-----------------------7-9--|-7-7-7-6-------------|
|*------------------7-9-----*|---------9-7-7-7-6---|
|*-7-7-7-7-7-7-9-10---------*|-------------------9-|
|----------------------------|---------------------|
                    Play 3x


|-----------------------7-9--|-7-7-7-6-------------|
|*------------------7-9-----*|---------9-7-7-7-6---|
|*-7-7-7-7-7-7-9-10---------*|-------------------9-|
|----------------------------|---------------------|
                     Play 3x

Chorus:

|-------------------------7-7-7-7-7-7-7-7-7-7-7-7------------------------------|
|---------------------5-7-------------------------7-5-----------5-5-5-5-5-5-7\-|
|-5-5-5-5-5-5-5-5-5-5---------------------------------5-5-5-5-5----------------|
|------------------------------------------------------------------------------|


---------------------|
---------------------|
-3-3-3-3-3---------3-|
-----------3-3-3-5---|


|-------------------------7-7-7-7-7-7-7-7-7-7-7-7------------------------------|
|---------------------5-7-------------------------7-5-----------5-5-5-5-5-5-7\-|
|-5-5-5-5-5-5-5-5-5-5---------------------------------5-5-5-5-5----------------|
|------------------------------------------------------------------------------|


---------------------|
---------------------|
-3-3-3-3-3-----------|
-----------3-3-3-3-3-|


|-------------------------7-7-7-7-7-7-7-7-7-7-7-7------------------------------|
|---------------------5-7-------------------------7-5-----------5-5-5-5-5-5-7\-|
|-5-5-5-5-5-5-5-5-5-5---------------------------------5-5-5-5-5----------------|
|------------------------------------------------------------------------------|


---------------------|
---------------------|
-3-3-3-3-3---------3-|
-----------3-3-3-5---|


|-------------------------7-7-7-7-7-7-7-7-7-7-7-7------------------------------|
|---------------------5-7-------------------------7-5-----------5-5-5-5-5-5-7\-|
|-5-5-5-5-5-5-5-5-5-5---------------------------------5-5-5-5-5----------------|
|------------------------------------------------------------------------------|


---------------------|
---------------------|
-3-3-3-3-3-----------|
-----------3-3-3-3-3-|


End:

|---------------------------------------------------------------------------|
|-0----------------------0--------------------0-----------------------------|
|-------------------------------------------------------------------8-7---5-|
|-----------------------------------------------------------------------8---|
Suggest correction
What's this?
You can suggest a correction to this tab. Community and Mods will review your correction and vote to approve or reject it.
comments
We did not receive enough feedback on this tab! Please rate:
print report bad tab
1 2 3 4 5
guest
You may want to rate the tab now too:
select rating
Please do not post tabs as comments. Select "correction" instead!