Oops, an error
Loading. Please wait.

Blood Brothers Tab

version 7
20,082 views 36 this week
no commentswrite comment
1 2 3 4 5
x 5
add to favorites
×
Save as Personal and add changes to this tab that will be seen only by you. Learn more ›
×
You can save this tab as Personal to edit and correct it or add notes. All changes will be seen only by you. Learn more »
save as personal
new!
launch autoscroll
font size
0
reset
how to read this tab
guitar tuner
backing track
0:00
0:00
Autoscroll
slow
fast
+/-
esc
set tempo
stop
Author
Artist: Iron Maiden
Song: Blood Brothers
Album: Brave New World
Transcribed By: MOFO

I didn't transcribe the solos, because
I didn't get them.
The rest should be right.

[Intro]

 3x
e|--------------------------------|
B|--------------------------------|
G|--------------------------------|
D|-----------------5---5---7------|
A|---2---2---5---3---3---5---5----|
E|-0---0---3---3------------------|


e|--------------------------------|
B|--------------------------------|
G|--------------------------------|
D|-----------------7---7---5------|
A|---2---2---5---5---5---3---3----|
E|-0---0---3---3------------------|

[Riff 1]

e|-------8-7----7--------------------8-7----7---------------|
B|-----------10---10-8-10-8-7------------10---10-8-7-8-7----|
G|-9-7-9-----------------------9-7-9------------------------|
D|----------------------------------------------------------|
A|----------------------------------------------------------|
E|----------------------------------------------------------|


[Riff 2]

 |        7x         | 
e|---7----7-8-7------|---7----7-8-7------------|
B|-----10-------10-8-|-----10-------10-8-------|
G|-9-----------------|-9-----------------9\----|
D|-------------------|-------------------------|
A|-------------------|-------------------------|
E|-------------------|-------------------------|


[Riff 3]

 |                  3x                     |        2x       |
e|-----------------------------------------|-----------------|------------------|
B|-----------------------------------------|-----------------|------------------|
G|-----------------------------------------|-----------------|------------------|
D|---9---9---9---9----14----14----12----12-|---5---5---7---7-|---9---9---9---9--|
A|-7---7---7---7---12----12----10----10----|-3---3---5---5---|-7---7---7---7----|
E|-----------------------------------------|-----------------|------------------|


[Riff 4]

e|--------------7----7-10-7----7----------------7-10-7----7------------|
B|---7-8-7-8-10---10--------10---10-8-10S12--10--------10---10-8-10----|
G|-9-------------------------------------------------------------------|
D|---------------------------------------------------------------------|
A|---------------------------------------------------------------------|
E|---------------------------------------------------------------------|

e|------7----------------------------------------------------------|
B|-8-10---10-8-10-8-7------7-8-7---7------------7-8-7---7----------|
G|--------------------9--9-------9---9-7-9----9-------9---9-7-9----|
D|-----------------------------------------9-----------------------|
A|-----------------------------------------------------------------|
E|-----------------------------------------------------------------|

e|----------------------|
B|---7-8-7-------7------|
G|-9-------9-7-9---9----|
D|----------------------|
A|----------------------|
E|----------------------|

-Intro
-Riff 1 (repeat 2 times while the intro is continued)
-Verse (Em, C, G, D, 4x) (play two verses)
-Chorus (Em, C, G, D) (repeat 4 times)
-Verse (Em, C, G, D, 4x)
-Chorus (Em, C, G, D) (repeat 4 times)
-Riff 1 (repeat 2 times)
-Verse (Em, C, G, D, 4x) (play two verses)
-Chorus (Em, C, G, D) (repeat 4 times)
-Riff 1 (repeat 2 times)
-Solo 1
-Riff 2
-Riff 3
-Riff 4
-Riff 4 (while playing the next verse)
-Riff 4
-Solo 2
-Chorus (Em, C, G, D) (repeat 8 times)
-Riff 1 (repeat 2 times)



************************************

| \  Slide down
| S  slide

************************************
Suggest correction
comments
print report bad tab
guest
You may want to rate the tab now too:
select rating
Wanna post a correction for this tab? Suggest correction