Oops, an error
Loading. Please wait.

Brave New World Bass Tab

version 1
version 1
5,706 views 3 this week
no commentswrite comment
1 2 3 4 5
accurate
x 5
add to favorites
launch autoscroll
font size
0
reset
guitar tuner
Tab Pro tools
  • play this tab
  • loop segment
  • change instrument
  • show fretboard
  • metronome
×
Best way to learn
"Brave New World"
Autoscroll
slow
fast
+/-
esc
set tempo
stop
Contributor
Difficulty
intermediate
Title: Brave New World
Artist: Iron Maiden
Album: Brave New World
Composer: Dave Murray
Tabbed By: FLBatista


INTRO:

G|-7---10--5-----3---5---5-----7---10--5---3---5---7----|
D|------------------------------------------------------|
A|-5---8---3-----1---3---3-----5---8---3---1---3---5----|
E|------------------------------------------------------|

G|-3---5---5-----3---5---5-----7---10--5---3---5---7----|
D|------------------------------------------------------|
A|-1---3---3-----1---3---3-----5---8---3---1---3---5----|
E|------------------------------------------------------|


VERSE:

G|-7---10--5-----3---5---5-----7---10--5---3---5---7----|x3
D|------------------------------------------------------|
A|-5---8---3-----1---3---3-----5---8---3---1---3---5----|
E|------------------------------------------------------|

G|-3---5---5-----3---5---5-----7---10--5---3---5---7----|
D|------------------------------------------------------|
A|-1---3---3-----1---3---3-----5---8---3---1---3---5----|
E|------------------------------------------------------|

G|--------|
D|--------|
A|-5(x16)-|
E|--------|


STRONG VERSE

G|------------------------------|X2
D|------------------------------|
A|--5(x16)-1(x16)-3(x16)-5(x16)-|
E|------------------------------|

G|-------------------------------|X2
D|-------------------------------|
A|-1(x16)-3(x16)-1(x14)-3-5(x16)-|
E|-------------------------------|


CHORUS(X2):

G|-7---------------3---------------5---------------7----------------|
D|-7---------------3---------------5---------------7----------------|
A|-5-555-555-555-551-111-111-111-113-333-333-333-335-555-555-555-55-|
E|------------------------------------------------------------------|

G|-7---------------3-------------------------------7----------------|
D|-7---------------3---------------5---------------7----------------|
A|-5-555-555-555-551-111-111-111-115---------------5-555-555-555-55-|
E|---------------------------------3-333-333-333-33-----------------|


VERSE 2:

G|-7---------------3---------------5---------------7---------------|X2
D|-7---------------3---------------5---------------7---------------|
A|-5-55-55-555-555-1-11-11-111-111-3-33-33-333-333-5-55-55-555-555-|
E|-----------------------------------------------------------------|


G|-3---------------5---------------3-----------5-7----------------|X2
D|-3---------------5---------------3-----------5-7----------------|
A|-1-11-11-111-111-3-33-33-333-333-1-11-11-111-3-5-55-55-555-555--|
E|----------------------------------------------------------------|


PLAY: CHORUS (x2)


DURING THE FIRST SOLO:

G|-7---------------3---------------5---------------7---------------|x2
D|-7---------------3---------------5---------------7---------------|
A|-5-55-55-555-555-1-11-11-111-111-3-33-33-333-333-5-55-55-555-555-|
E|-----------------------------------------------------------------|

G|-3---------------5---------5-5---3-----------5-7---------------|X2
D|-3---------------5---------5-5---3-----------5-7---------------|
A|-1-11-11-111-111-3-33-33-3-3-3---1-11-11-111-3-5-55-55-555-555-|
E|---------------------------------------------------------------|


DURING THE SECOND SOLO:

G|-9-----------7-7-5-----------7-7-7-----------7-7-9---------------|X2
D|-9-----------5-5-5-----------5-5-7-----------5-5-9---------------|
A|-7-77-77-777-----3-33-33-333-----5-55-55-555-----7-77-77-777-777-|
E|-----------------------------------------------------------------|


SOLO RIFF:

G|-9-----------7-7-5-----------7-7-7-----------7-7-9---------------|x3
D|-9-----------5-5-5-----------5-5-7-----------5-5-9---------------|
A|-7-77-77-777-----3-33-33-333-----5-55-55-555-----7-77-77-777-777-|
E|-----------------------------------------------------------------|

G|-9-----------7-7-5-----------7-7-7-----------7-7-9---------------------|
D|-9-----------5-5-5-----------5-5-7-----------5-5-9------7-9-7--7-------|
A|-7-77-77-777-----3-33-33-333-----5-55-55-555-----7-7(6X)-----10-10-8-7-|
E|-----------------------------------------------------------------------|


PLAY: CHORUS


CHORUS VARIATION:

G|-7---------------3---------------5---------------7----------------|
D|-7---------------3---------------5---------------7----------------|
A|-5-555-555-555-551-111-111-111-113-333-333-333-335-555-555-555-55-|
E|------------------------------------------------------------------|

G|-7---------------3------------------------------7~-|
D|-7---------------3---------------5--------------7~-|
A|-5-555-555-555-551-111-111-111-115--------------5~-|
E|---------------------------------3-333-333-333-----|


END:

G|-7---10--5-----3---5---5-----7---10--5---3---5---7~---|
D|------------------------------------------------------|
A|-5---8---3-----1---3---3-----5---8---3---1---3---5~---|
E|------------------------------------------------------|


LEG:

~ : Let Ring
/ : Slide Up
\ : Slide Down
comments
print report bad tab
I want to post or [tab]
guest
You may want to rate the tab now too:
select rating
Please do not post tabs as comments. Select "correction" instead!