Oops, an error
Loading. Please wait.

Brave New World Bass Tab

version 4
version 4
1,317 views 6 this week
no commentswrite comment
1 2 3 4 5
x 3
add to favorites
launch autoscroll
font size
0
reset
guitar tuner
Autoscroll
slow
fast
+/-
esc
set tempo
stop
Help us to improve Ultimate-Guitar.com Take our survey!
×
Author
-------------------------------------------------------------------------------
			     BRAVE NEW WORLD - Iron Maiden
-------------------------------------------------------------------------------

Tabbed By : Kevin

Tuning:Standard

intro:
G|-14--17--12-----10--12--12-----14--17--12--10--12--14-----|
D|----------------------------------------------------------|x6
A|-12--15--10-----8---10--10-----12--15--10--8---10--12-----|
E|----------------------------------------------------------|

verse:
G|-----------------------------------------------------------------|
D|-----------------------------------------------------------------|x2
A|-555555555555555-111111111111111-333333333333333-555555555555555-|
E|-----------------------------------------------------------------|

G|-----------------------------------------------------------------|
D|-----------------------------------------------------------------|x2
A|-111111111111111-333333333333333-111111111111111-555555555555555-|
E|-----------------------------------------------------------------|

chorus: x2
G|-----------------------------------------------------------------|
D|-----------------------------------------------------------------|
A|-5-555-555-555-5-1-111-111-111-1-3-333-333-333-3-5-555-555-555-5-|
E|-----------------------------------------------------------------|

G|-----------------------------------------------------------------|
D|-----------------------------------------------------------------|
A|-5-555-555-555-5-1-111-111-111-1-----------------5-555-555-555-5-|
E|---------------------------------3-333-333-333-3-----------------|

verse:
G|---------------------------------------------------------------------|
D|---------------------------------------------------------------------|x2
A|-5--5-55-555-555--1--1-11-111-111--3--3-33-333-333--5--5-55-555-555--|
E|---------------------------------------------------------------------|

G|---------------------------------------------------------------------|
D|---------------------------------------------------------------------|x2
A|-1--1-11-111-111--3--3-33-333-333--1--1-11-111-111--5--5-55-555-555--|
E|---------------------------------------------------------------------|

chorus: x2
G|-----------------------------------------------------------------|
D|-----------------------------------------------------------------|
A|-5-555-555-555-5-1-111-111-111-1-3-333-333-333-3-5-555-555-555-5-|
E|-----------------------------------------------------------------|

G|-----------------------------------------------------------------|
D|-----------------------------------------------------------------|
A|-5-555-555-555-5-1-111-111-111-1-----------------5-555-555-555-5-|
E|---------------------------------3-333-333-333-3-----------------|

solo:
G|---------------------------------------------------------------------|
D|---------------------------------------------------------------------|x2
A|-5--5-55-555-555--1--1-11-111-111--3--3-33-333-333--5--5-55-555-555--|
E|---------------------------------------------------------------------|

G|---------------------------------------------------------------------|
D|---------------------------------------------------------------------|x2
A|-1--1-11-111-111--3--3-33-333-333--1--1-11-111-111--5--5-55-555-555--|
E|---------------------------------------------------------------------|

G|---------------------------------------------------------------------|
D|---------------------------------------------------------------------|x2
A|-7--7-77-777-777--3--3-33-333-333--5--5-55-555-555--7--7-77-777-777--|
E|---------------------------------------------------------------------|

G|---------------------------------------------------------------------|
D|--------------9----------------5----------------7--------------------|
A|-7--7-77-777--7---3--3-33-333--3---5--5-55-555--5---7--7-77-777-777--|
E|---------------------------------------------------------------------|

G|---------------------------------------------------------------------|
D|--------------9----------------5----------------7--------------------|
A|-7--7-77-777--7---3--3-33-333--3---5--5-55-555--5---7777777777777777-|
E|---------------------------------------------------------------------|

G|---------------------------------------------------------------------|
D|--------------9----------------5----------------7--------------------|
A|-7--7-77-777--7---3--3-33-333--3---5--5-55-555--5---7--7-77-777-777--|
E|---------------------------------------------------------------------|

G|---------------------------------------------------------------------|
D|--------------9----------------5----------------7--------------------|
A|-7--7-77-777--7---3--3-33-333--3---5--5-55-555--5---7777777777777777-|
E|---------------------------------------------------------------------|

chorus: x2
G|-----------------------------------------------------------------|
D|-----------------------------------------------------------------|
A|-5-555-555-555-5-1-111-111-111-1-3-333-333-333-3-5-555-555-555-5-|
E|-----------------------------------------------------------------|

G|-----------------------------------------------------------------|
D|-----------------------------------------------------------------|
A|-5-555-555-555-5-1-111-111-111-1-----------------5-555-555-555-5-|
E|---------------------------------3-333-333-333-3-----------------|

outro:
G|-14--17--12-----10--12--12-----14--17--12--10--9--7-----|
D|--------------------------------------------------------|
A|-12--15--10-----8---10--10-----12--15--10--8---7--5-----|
E|--------------------------------------------------------|


| /  slide up
| \  slide down
| h  hammer-on
| p  pull-off
| ~  vibrato
| +  harmonic
| x  Mute note
===============================================================================
Suggest correction
Give kudos to tab author, rate the tab!
1 2 3 4 5
comments
print report bad tab
guest
You may want to rate the tab now too:
select rating
Wanna post a correction for this tab? Suggest correction